  0
SECTION
  2
HEADER
  9
$ACADVER
  1
AC1014
  9
$ACADMAINTVER
 70
     5
  9
$DWGCODEPAGE
  3
ANSI_1252
  9
$INSBASE
 10
-400.240237
 20
343.6
 30
0.0
  9
$EXTMIN
 10
-510.502928
 20
342.717413
 30
-0.000019
  9
$EXTMAX
 10
-190.411902
 20
933.672001
 30
0.421764
  9
$LIMMIN
 10
0.0
 20
0.0
  9
$LIMMAX
 10
3360.0
 20
2376.0
  9
$ORTHOMODE
 70
     1
  9
$REGENMODE
 70
     1
  9
$FILLMODE
 70
     1
  9
$QTEXTMODE
 70
     0
  9
$MIRRTEXT
 70
     0
  9
$DRAGMODE
 70
     2
  9
$LTSCALE
 40
1.0
  9
$OSMODE
 70
     0
  9
$ATTMODE
 70
     1
  9
$TEXTSIZE
 40
3.5
  9
$TRACEWID
 40
0.05
  9
$TEXTSTYLE
  7
ROMANS
  9
$CLAYER
  8
035-DWG
  9
$CELTYPE
  6
BYLAYER
  9
$CECOLOR
 62
   256
  9
$CELTSCALE
 40
1.0
  9
$DELOBJ
 70
     1
  9
$DISPSILH
 70
     0
  9
$DIMSCALE
 40
8.0
  9
$DIMASZ
 40
2.5
  9
$DIMEXO
 40
1.5
  9
$DIMDLI
 40
5.0
  9
$DIMRND
 40
0.0
  9
$DIMDLE
 40
0.0
  9
$DIMEXE
 40
1.0
  9
$DIMTP
 40
0.0
  9
$DIMTM
 40
0.0
  9
$DIMTXT
 40
3.0
  9
$DIMCEN
 40
-2.0
  9
$DIMTSZ
 40
0.0
  9
$DIMTOL
 70
     0
  9
$DIMLIM
 70
     0
  9
$DIMTIH
 70
     0
  9
$DIMTOH
 70
     0
  9
$DIMSE1
 70
     0
  9
$DIMSE2
 70
     0
  9
$DIMTAD
 70
     1
  9
$DIMZIN
 70
     8
  9
$DIMBLK
  1

  9
$DIMASO
 70
     1
  9
$DIMSHO
 70
     1
  9
$DIMPOST
  1

  9
$DIMAPOST
  1

  9
$DIMALT
 70
     0
  9
$DIMALTD
 70
     2
  9
$DIMALTF
 40
25.4
  9
$DIMLFAC
 40
1.0
  9
$DIMTOFL
 70
     1
  9
$DIMTVP
 40
0.0
  9
$DIMTIX
 70
     0
  9
$DIMSOXD
 70
     0
  9
$DIMSAH
 70
     0
  9
$DIMBLK1
  1

  9
$DIMBLK2
  1

  9
$DIMSTYLE
  2
STANDAARD
  9
$DIMCLRD
 70
   256
  9
$DIMCLRE
 70
   256
  9
$DIMCLRT
 70
   256
  9
$DIMTFAC
 40
0.75
  9
$DIMGAP
 40
1.5
  9
$DIMJUST
 70
     0
  9
$DIMSD1
 70
     0
  9
$DIMSD2
 70
     0
  9
$DIMTOLJ
 70
     1
  9
$DIMTZIN
 70
     8
  9
$DIMALTZ
 70
     8
  9
$DIMALTTZ
 70
     8
  9
$DIMFIT
 70
     3
  9
$DIMUPT
 70
     0
  9
$DIMUNIT
 70
     2
  9
$DIMDEC
 70
     0
  9
$DIMTDEC
 70
     1
  9
$DIMALTU
 70
     2
  9
$DIMALTTD
 70
     2
  9
$DIMTXSTY
  7
ROMANS
  9
$DIMAUNIT
 70
     0
  9
$LUNITS
 70
     2
  9
$LUPREC
 70
     4
  9
$SKETCHINC
 40
0.1
  9
$FILLETRAD
 40
6.0
  9
$AUNITS
 70
     0
  9
$AUPREC
 70
     4
  9
$MENU
  1
wtb2
  9
$ELEVATION
 40
0.0
  9
$PELEVATION
 40
0.0
  9
$THICKNESS
 40
0.0
  9
$LIMCHECK
 70
     0
  9
$BLIPMODE
 70
     0
  9
$CHAMFERA
 40
0.0
  9
$CHAMFERB
 40
0.0
  9
$CHAMFERC
 40
0.0
  9
$CHAMFERD
 40
0.0
  9
$SKPOLY
 70
     0
  9
$TDCREATE
 40
2451578.409790035
  9
$TDUPDATE
 40
2452584.394580879
  9
$TDINDWG
 40
3.1205870139
  9
$TDUSRTIMER
 40
3.1205870139
  9
$USRTIMER
 70
     1
  9
$ANGBASE
 50
0.0
  9
$ANGDIR
 70
     0
  9
$PDMODE
 70
     3
  9
$PDSIZE
 40
0.0
  9
$PLINEWID
 40
0.0
  9
$COORDS
 70
     2
  9
$SPLFRAME
 70
     0
  9
$SPLINETYPE
 70
     6
  9
$SPLINESEGS
 70
     8
  9
$ATTDIA
 70
     0
  9
$ATTREQ
 70
     1
  9
$HANDLING
 70
     1
  9
$HANDSEED
  5
1AB
  9
$SURFTAB1
 70
     6
  9
$SURFTAB2
 70
     6
  9
$SURFTYPE
 70
     6
  9
$SURFU
 70
     6
  9
$SURFV
 70
     6
  9
$UCSNAME
  2

  9
$UCSORG
 10
0.0
 20
0.0
 30
0.0
  9
$UCSXDIR
 10
1.0
 20
0.0
 30
0.0
  9
$UCSYDIR
 10
0.0
 20
1.0
 30
0.0
  9
$PUCSNAME
  2

  9
$PUCSORG
 10
0.0
 20
0.0
 30
0.0
  9
$PUCSXDIR
 10
1.0
 20
0.0
 30
0.0
  9
$PUCSYDIR
 10
0.0
 20
1.0
 30
0.0
  9
$USERI1
 70
     0
  9
$USERI2
 70
     0
  9
$USERI3
 70
     0
  9
$USERI4
 70
     0
  9
$USERI5
 70
     0
  9
$USERR1
 40
0.0
  9
$USERR2
 40
0.0
  9
$USERR3
 40
0.0
  9
$USERR4
 40
0.0
  9
$USERR5
 40
0.0
  9
$WORLDVIEW
 70
     1
  9
$SHADEDGE
 70
     3
  9
$SHADEDIF
 70
    70
  9
$TILEMODE
 70
     1
  9
$MAXACTVP
 70
    16
  9
$PINSBASE
 10
0.0
 20
0.0
 30
0.0
  9
$PLIMCHECK
 70
     0
  9
$PEXTMIN
 10
1.000000E+20
 20
1.000000E+20
 30
1.000000E+20
  9
$PEXTMAX
 10
-1.000000E+20
 20
-1.000000E+20
 30
-1.000000E+20
  9
$PLIMMIN
 10
0.0
 20
0.0
  9
$PLIMMAX
 10
12.0
 20
9.0
  9
$UNITMODE
 70
     0
  9
$VISRETAIN
 70
     0
  9
$PLINEGEN
 70
     0
  9
$PSLTSCALE
 70
     0
  9
$TREEDEPTH
 70
  3020
  9
$PICKSTYLE
 70
     1
  9
$CMLSTYLE
  2
STANDARD
  9
$CMLJUST
 70
     0
  9
$CMLSCALE
 40
1.0
  9
$PROXYGRAPHICS
 70
     1
  9
$MEASUREMENT
 70
     0
  0
ENDSEC
  0
SECTION
  2
CLASSES
  0
CLASS
  1
LWPOLYLINE
  2
AcDbPolyline
  3
"AutoCAD"
 90
        0
280
     0
281
     1
  0
CLASS
  1
HATCH
  2
AcDbHatch
  3
"ACAD_SEDONA"
 90
        0
280
     0
281
     1
  0
CLASS
  1
ACMDATUMID
  2
AcmDatumId
  3
AutoCadMServices
 90
      255
280
     1
281
     1
  0
CLASS
  1
ACMFCFRAME
  2
AcmFCF
  3
AutoCadMServices
 90
      255
280
     1
281
     1
  0
CLASS
  1
AMLOADER
  2
AMLoader
  3
AMAcad
 90
        0
280
     0
281
     0
  0
ENDSEC
  0
SECTION
  2
TABLES
  0
TABLE
  2
VPORT
  5
12
100
AcDbSymbolTable
 70
     2
  0
VPORT
  5
1AA
100
AcDbSymbolTableRecord
100
AcDbViewportTableRecord
  2
*ACTIVE
 70
     0
 10
0.0
 20
0.0
 11
1.0
 21
1.0
 12
-350.457415
 22
638.194707
 13
0.0
 23
0.0
 14
20.0
 24
20.0
 15
40.0
 25
40.0
 16
0.0
 26
0.0
 36
1.0
 17
0.0
 27
0.0
 37
0.0
 40
597.606985
 41
1.650376
 42
50.0
 43
0.0
 44
0.0
 50
0.0
 51
0.0
 71
     0
 72
 20000
 73
     1
 74
     0
 75
     0
 76
     0
 77
     0
 78
     1
  0
ENDTAB
  0
TABLE
  2
LTYPE
  5
D
100
AcDbSymbolTable
 70
     1
  0
LTYPE
  5
E
100
AcDbSymbolTableRecord
100
AcDbLinetypeTableRecord
  2
BYBLOCK
 70
     0
  3

 72
    65
 73
     0
 40
0.0
  0
LTYPE
  5
F
100
AcDbSymbolTableRecord
100
AcDbLinetypeTableRecord
  2
BYLAYER
 70
     0
  3

 72
    65
 73
     0
 40
0.0
  0
LTYPE
  5
5
100
AcDbSymbolTableRecord
100
AcDbLinetypeTableRecord
  2
CONTINUOUS
 70
     0
  3
Solid line
 72
    65
 73
     0
 40
0.0
  0
ENDTAB
  0
TABLE
  2
LAYER
  5
A
100
AcDbSymbolTable
 70
     6
  0
LAYER
  5
4
100
AcDbSymbolTableRecord
100
AcDbLayerTableRecord
  2
0
 70
     0
 62
     8
  6
CONTINUOUS
  0
LAYER
  5
23
100
AcDbSymbolTableRecord
100
AcDbLayerTableRecord
  2
025-DWG
 70
     0
 62
     7
  6
CONTINUOUS
  0
LAYER
  5
1B
100
AcDbSymbolTableRecord
100
AcDbLayerTableRecord
  2
035-DWG
 70
     0
 62
     2
  6
CONTINUOUS
  0
LAYER
  5
E7
100
AcDbSymbolTableRecord
100
AcDbLayerTableRecord
  2
DEFPOINTS
 70
     0
 62
     7
  6
CONTINUOUS
  0
LAYER
  5
43
100
AcDbSymbolTableRecord
100
AcDbLayerTableRecord
  2
VHH-025
 70
     0
 62
     7
  6
CONTINUOUS
  0
LAYER
  5
3E
100
AcDbSymbolTableRecord
100
AcDbLayerTableRecord
  2
VHH-035
 70
     0
 62
     2
  6
CONTINUOUS
  0
ENDTAB
  0
TABLE
  2
STYLE
  5
B
100
AcDbSymbolTable
 70
     2
  0
STYLE
  5
C
100
AcDbSymbolTableRecord
100
AcDbTextStyleTableRecord
  2
STANDARD
 70
     0
 40
0.0
 41
1.0
 50
0.0
 71
     0
 42
15.0
  3
txt
  4

  0
STYLE
  5
1C
100
AcDbSymbolTableRecord
100
AcDbTextStyleTableRecord
  2
ROMANS
 70
     0
 40
0.0
 41
1.0
 50
0.0
 71
     0
 42
3.5
  3
romans
  4

  0
ENDTAB
  0
TABLE
  2
VIEW
  5
10
100
AcDbSymbolTable
 70
     0
  0
ENDTAB
  0
TABLE
  2
UCS
  5
11
100
AcDbSymbolTable
 70
     0
  0
ENDTAB
  0
TABLE
  2
APPID
  5
14
100
AcDbSymbolTable
 70
     1
  0
APPID
  5
15
100
AcDbSymbolTableRecord
100
AcDbRegAppTableRecord
  2
ACAD
 70
     0
  0
ENDTAB
  0
TABLE
  2
DIMSTYLE
  5
16
100
AcDbSymbolTable
 70
     1
  0
DIMSTYLE
105
1E
100
AcDbSymbolTableRecord
100
AcDbDimStyleTableRecord
  2
STANDAARD
 70
     0
  3

  4

  5

  6

  7

 40
8.0
 41
2.5
 42
1.5
 43
5.0
 44
1.0
 45
0.0
 46
0.0
 47
0.0
 48
0.0
140
3.0
141
-2.0
142
0.0
143
25.4
144
1.0
145
0.0
146
0.75
147
1.5
 71
     0
 72
     0
 73
     0
 74
     0
 75
     0
 76
     0
 77
     1
 78
     8
170
     0
171
     2
172
     1
173
     0
174
     0
175
     0
176
   256
177
   256
178
   256
270
     2
271
     0
272
     1
273
     2
274
     2
340
1C
275
     0
280
     0
281
     0
282
     0
283
     1
284
     8
285
     8
286
     8
287
     3
288
     0
  0
ENDTAB
  0
TABLE
  2
BLOCK_RECORD
  5
1
100
AcDbSymbolTable
 70
     0
  0
BLOCK_RECORD
  5
2
100
AcDbSymbolTableRecord
100
AcDbBlockTableRecord
  2
*MODEL_SPACE
  0
BLOCK_RECORD
  5
7
100
AcDbSymbolTableRecord
100
AcDbBlockTableRecord
  2
*PAPER_SPACE
  0
ENDTAB
  0
ENDSEC
  0
SECTION
  2
BLOCKS
  0
BLOCK
  5
3
100
AcDbEntity
  8
0
100
AcDbBlockBegin
  2
*MODEL_SPACE
 70
     0
 10
0.0
 20
0.0
 30
0.0
  3
*MODEL_SPACE
  1

  0
ENDBLK
  5
6
100
AcDbEntity
  8
0
100
AcDbBlockEnd
  0
BLOCK
  5
8
100
AcDbEntity
 67
     1
  8
0
100
AcDbBlockBegin
  2
*PAPER_SPACE
 70
     0
 10
0.0
 20
0.0
 30
0.0
  3
*PAPER_SPACE
  1

  0
ENDBLK
  5
9
100
AcDbEntity
 67
     1
  8
0
100
AcDbBlockEnd
  0
ENDSEC
  0
SECTION
  2
ENTITIES
  0
LINE
  5
1F
100
AcDbEntity
  8
035-DWG
100
AcDbLine
 10
-503.640237
 20
381.6
 30
0.0
 11
-503.640237
 21
776.069091
 31
0.0
  0
LINE
  5
20
100
AcDbEntity
  8
035-DWG
100
AcDbLine
 10
-294.240237
 20
511.860317
 30
0.0
 11
-294.240237
 21
382.7
 31
0.0
  0
LINE
  5
21
100
AcDbEntity
  8
035-DWG
100
AcDbLine
 10
-297.909578
 20
382.7
 30
0.0
 11
-297.909578
 21
518.0
 31
0.0
  0
LINE
  5
22
100
AcDbEntity
  8
025-DWG
100
AcDbLine
 10
-295.655862
 20
382.7
 30
0.0
 11
-295.655862
 21
518.0
 31
0.0
  0
LINE
  5
24
100
AcDbEntity
  8
025-DWG
100
AcDbLine
 10
-295.219397
 20
518.0
 30
0.0
 11
-295.219397
 21
382.7
 31
0.0
  0
LINE
  5
25
100
AcDbEntity
  8
035-DWG
100
AcDbLine
 10
-498.590237
 20
343.6
 30
0.0
 11
-301.890237
 21
343.6
 31
0.0
  0
LINE
  5
26
100
AcDbEntity
  8
035-DWG
100
AcDbLine
 10
-503.640237
 20
381.6
 30
0.0
 11
-296.840237
 21
381.6
 31
0.0
  0
LINE
  5
27
100
AcDbEntity
  8
025-DWG
100
AcDbLine
 10
-502.390237
 20
373.6
 30
0.0
 11
-298.090237
 21
373.6
 31
0.0
  0
LINE
  5
28
100
AcDbEntity
  8
035-DWG
100
AcDbLine
 10
-305.240237
 20
343.6
 30
0.0
 11
-469.440237
 21
343.6
 31
0.0
  0
LINE
  5
29
100
AcDbEntity
  8
035-DWG
100
AcDbLine
 10
-502.390237
 20
373.6
 30
0.0
 11
-502.390237
 21
347.4
 31
0.0
  0
ARC
  5
2A
100
AcDbEntity
  8
035-DWG
100
AcDbCircle
 10
-498.590237
 20
347.4
 30
0.0
 40
3.8
100
AcDbArc
 50
180.0
 51
196.826449
  0
ARC
  5
2B
100
AcDbEntity
  8
035-DWG
100
AcDbCircle
 10
-498.590237
 20
347.4
 30
0.0
 40
3.8
100
AcDbArc
 50
180.0
 51
270.0
  0
ARC
  5
2C
100
AcDbEntity
  8
035-DWG
100
AcDbCircle
 10
-502.390237
 20
377.6
 30
0.0
 40
4.0
100
AcDbArc
 50
90.0
 51
270.0
  0
LINE
  5
2D
100
AcDbEntity
  8
035-DWG
100
AcDbLine
 10
-298.090237
 20
373.6
 30
0.0
 11
-298.090237
 21
347.4
 31
0.0
  0
ARC
  5
2E
100
AcDbEntity
  8
035-DWG
100
AcDbCircle
 10
-301.890237
 20
347.4
 30
0.0
 40
3.8
100
AcDbArc
 50
270.0
 51
360.0
  0
LINE
  5
2F
100
AcDbEntity
  8
035-DWG
100
AcDbLine
 10
-296.840237
 20
381.6
 30
0.0
 11
-296.840237
 21
382.2
 31
0.0
  0
LINE
  5
30
100
AcDbEntity
  8
035-DWG
100
AcDbLine
 10
-296.840237
 20
382.2
 30
0.0
 11
-296.840237
 21
381.6
 31
0.0
  0
LINE
  5
31
100
AcDbEntity
  8
025-DWG
100
AcDbLine
 10
-297.909578
 20
382.7
 30
0.0
 11
-295.655862
 21
382.7
 31
0.0
  0
LINE
  5
32
100
AcDbEntity
  8
035-DWG
100
AcDbLine
 10
-295.716797
 20
382.2
 30
0.0
 11
-297.855277
 21
382.2
 31
0.0
  0
LWPOLYLINE
  5
33
100
AcDbEntity
  8
035-DWG
100
AcDbPolyline
 90
       17
 70
     0
 43
0.0
 10
-297.855277
 20
382.2
 10
-297.860408
 20
382.202367
 10
-297.865629
 20
382.209507
 10
-297.870844
 20
382.221475
 10
-297.875956
 20
382.238327
 10
-297.880872
 20
382.260004
 10
-297.885518
 20
382.285982
 10
-297.889825
 20
382.315619
 10
-297.893723
 20
382.348274
 10
-297.897166
 20
382.38337
 10
-297.900314
 20
382.422297
 10
-297.903091
 20
382.464465
 10
-297.905422
 20
382.509283
 10
-297.907243
 20
382.55611
 10
-297.908541
 20
382.604102
 10
-297.909319
 20
382.652364
 10
-297.909578
 20
382.7
  0
ARC
  5
34
100
AcDbEntity
  8
035-DWG
100
AcDbCircle
 10
-294.740237
 20
382.7
 30
0.0
 40
0.5
100
AcDbArc
 50
270.0
 51
0.0
  0
LINE
  5
35
100
AcDbEntity
  8
025-DWG
100
AcDbLine
 10
-295.219397
 20
382.7
 30
0.0
 11
-295.655862
 21
382.7
 31
0.0
  0
ELLIPSE
  5
36
100
AcDbEntity
  8
025-DWG
100
AcDbEllipse
 10
-295.716797
 20
382.7
 30
0.0
 11
0.000000000024182
 21
0.5
 31
0.0
210
0.0
220
0.0
230
-1.0
 40
0.9948
 41
1.570796326746783
 42
3.141592653541176
  0
ELLIPSE
  5
37
100
AcDbEntity
  8
025-DWG
100
AcDbEllipse
 10
-295.716797
 20
382.7
 30
0.0
 11
0.0000000000000268
 21
0.5
 31
0.0
210
0.0
220
0.0
230
-1.0
 40
0.121869
 41
1.570796326794435
 42
3.141592653589354
  0
LINE
  5
38
100
AcDbEntity
  8
025-DWG
100
AcDbLine
 10
-294.240237
 20
382.7
 30
0.0
 11
-295.219397
 21
382.7
 31
0.0
  0
LINE
  5
39
100
AcDbEntity
  8
035-DWG
100
AcDbLine
 10
-295.716797
 20
382.2
 30
0.0
 11
-294.740237
 21
382.2
 31
0.0
  0
ARC
  5
3A
100
AcDbEntity
  8
035-DWG
100
AcDbCircle
 10
-298.090237
 20
377.6
 30
0.0
 40
4.0
100
AcDbArc
 50
270.0
 51
90.0
  0
LINE
  5
3B
100
AcDbEntity
  8
035-DWG
100
AcDbLine
 10
-299.940237
 20
874.970653
 30
0.0
 11
-299.940237
 21
793.069091
 31
0.0
  0
LINE
  5
3C
100
AcDbEntity
  8
035-DWG
100
AcDbLine
 10
-500.540237
 20
874.970653
 30
0.0
 11
-500.540237
 21
793.069091
 31
0.0
  0
ARC
  5
3D
100
AcDbEntity
  8
VHH-035
100
AcDbCircle
 10
-236.880164
 20
632.240196
 30
0.0
 40
61.5
100
AcDbArc
 50
291.642131
 51
307.663948
  0
ARC
  5
3F
100
AcDbEntity
  8
VHH-035
100
AcDbCircle
 10
-237.476752
 20
634.916525
 30
0.0
 40
60.0
100
AcDbArc
 50
287.747333
 51
295.081486
  0
ARC
  5
40
100
AcDbEntity
  8
VHH-035
100
AcDbCircle
 10
-241.85198
 20
615.924908
 30
0.0
 40
46.241633
100
AcDbArc
 50
295.720623
 51
310.187569
  0
ARC
  5
41
100
AcDbEntity
  8
VHH-035
100
AcDbCircle
 10
-241.85198
 20
615.924908
 30
0.0
 40
49.329327
100
AcDbArc
 50
303.410632
 51
328.85969
  0
LINE
  5
42
100
AcDbEntity
  8
VHH-025
100
AcDbLine
 10
-249.054275
 20
538.2
 30
0.0
 11
-248.815716
 21
545.75
 31
0.0
  0
LINE
  5
44
100
AcDbEntity
  8
VHH-025
100
AcDbLine
 10
-248.090514
 20
538.2
 30
0.0
 11
-247.233702
 21
546.3
 31
0.0
  0
LINE
  5
45
100
AcDbEntity
  8
VHH-025
100
AcDbLine
 10
-248.090514
 20
538.2
 30
0.0
 11
-247.867906
 21
545.75
 31
0.0
  0
LINE
  5
46
100
AcDbEntity
  8
VHH-025
100
AcDbLine
 10
-246.914635
 20
538.2
 30
0.0
 11
-246.711487
 21
545.75
 31
0.0
  0
LINE
  5
47
100
AcDbEntity
  8
VHH-025
100
AcDbLine
 10
-245.54518
 20
538.2
 30
0.0
 11
-244.850512
 21
546.3
 31
0.0
  0
LINE
  5
48
100
AcDbEntity
  8
VHH-025
100
AcDbLine
 10
-244.003749
 20
538.2
 30
0.0
 11
-243.848778
 21
545.75
 31
0.0
  0
LINE
  5
49
100
AcDbEntity
  8
VHH-025
100
AcDbLine
 10
-245.54518
 20
538.2
 30
0.0
 11
-245.364698
 21
545.75
 31
0.0
  0
LINE
  5
4A
100
AcDbEntity
  8
VHH-025
100
AcDbLine
 10
-242.314649
 20
538.2
 30
0.0
 11
-241.825772
 21
546.3
 31
0.0
  0
LINE
  5
4B
100
AcDbEntity
  8
VHH-025
100
AcDbLine
 10
-240.504519
 20
538.2
 30
0.0
 11
-240.407462
 21
545.75
 31
0.0
  0
LINE
  5
4C
100
AcDbEntity
  8
VHH-025
100
AcDbLine
 10
-242.314649
 20
538.2
 30
0.0
 11
-242.187634
 21
545.75
 31
0.0
  0
LINE
  5
4D
100
AcDbEntity
  8
VHH-025
100
AcDbLine
 10
-226.965824
 20
538.2
 30
0.0
 11
-227.092839
 21
545.75
 31
0.0
  0
LINE
  5
4E
100
AcDbEntity
  8
VHH-025
100
AcDbLine
 10
-226.965824
 20
538.2
 30
0.0
 11
-227.454701
 21
546.3
 31
0.0
  0
LINE
  5
4F
100
AcDbEntity
  8
VHH-025
100
AcDbLine
 10
-228.775954
 20
538.2
 30
0.0
 11
-228.873011
 21
545.75
 31
0.0
  0
LINE
  5
50
100
AcDbEntity
  8
VHH-025
100
AcDbLine
 10
-233.125062
 20
538.2
 30
0.0
 11
-233.158106
 21
545.75
 31
0.0
  0
LINE
  5
51
100
AcDbEntity
  8
VHH-025
100
AcDbLine
 10
-231.159971
 20
538.2
 30
0.0
 11
-231.412338
 21
546.3
 31
0.0
  0
LINE
  5
52
100
AcDbEntity
  8
VHH-025
100
AcDbLine
 10
-231.159971
 20
538.2
 30
0.0
 11
-231.225539
 21
545.75
 31
0.0
  0
LINE
  5
53
100
AcDbEntity
  8
VHH-025
100
AcDbLine
 10
-236.155411
 20
538.2
 30
0.0
 11
-236.122367
 21
545.75
 31
0.0
  0
LINE
  5
54
100
AcDbEntity
  8
VHH-025
100
AcDbLine
 10
-238.120502
 20
538.2
 30
0.0
 11
-237.868135
 21
546.3
 31
0.0
  0
LINE
  5
55
100
AcDbEntity
  8
VHH-025
100
AcDbLine
 10
-238.120502
 20
538.2
 30
0.0
 11
-238.054935
 21
545.75
 31
0.0
  0
LINE
  5
56
100
AcDbEntity
  8
VHH-025
100
AcDbLine
 10
-250.53896
 20
538.2
 30
0.0
 11
-250.191655
 21
541.015347
 31
0.0
  0
LINE
  5
57
100
AcDbEntity
  8
VHH-025
100
AcDbLine
 10
-250.53896
 20
538.2
 30
0.0
 11
-250.275829
 21
545.75
 31
0.0
  0
LINE
  5
58
100
AcDbEntity
  8
VHH-035
100
AcDbLine
 10
-250.305829
 20
545.776175
 30
0.0
 11
-250.640237
 21
536.2
 31
0.0
  0
LINE
  5
59
100
AcDbEntity
  8
VHH-025
100
AcDbLine
 10
-250.288228
 20
538.2
 30
0.0
 11
-250.029246
 21
545.75
 31
0.0
  0
LINE
  5
5A
100
AcDbEntity
  8
VHH-035
100
AcDbLine
 10
-250.640237
 20
536.0
 30
0.0
 11
-278.440237
 21
543.942857
 31
0.0
  0
LINE
  5
5B
100
AcDbEntity
  8
VHH-035
100
AcDbLine
 10
-250.640237
 20
536.0
 30
0.0
 11
-278.440237
 21
543.942857
 31
0.0
  0
LINE
  5
5C
100
AcDbEntity
  8
VHH-025
100
AcDbLine
 10
-249.790718
 20
538.2
 30
0.0
 11
-248.816083
 21
546.3
 31
0.0
  0
LINE
  5
5D
100
AcDbEntity
  8
VHH-035
100
AcDbLine
 10
-240.440237
 20
528.884192
 30
0.0
 11
-298.804421
 21
540.034715
 31
0.0
  0
LINE
  5
5E
100
AcDbEntity
  8
VHH-025
100
AcDbLine
 10
-249.790718
 20
538.2
 30
0.0
 11
-249.53997
 21
545.75
 31
0.0
  0
LINE
  5
5F
100
AcDbEntity
  8
035-DWG
100
AcDbLine
 10
-298.804421
 20
557.813668
 30
0.0
 11
-298.804421
 21
514.457484
 31
0.0
  0
LINE
  5
60
100
AcDbEntity
  8
VHH-025
100
AcDbLine
 10
-218.741513
 20
538.2
 30
0.0
 11
-219.088818
 21
541.015347
 31
0.0
  0
LINE
  5
61
100
AcDbEntity
  8
VHH-025
100
AcDbLine
 10
-223.735293
 20
538.2
 30
0.0
 11
-223.915775
 21
545.75
 31
0.0
  0
LINE
  5
62
100
AcDbEntity
  8
VHH-025
100
AcDbLine
 10
-223.735293
 20
538.2
 30
0.0
 11
-224.429961
 21
546.3
 31
0.0
  0
LINE
  5
63
100
AcDbEntity
  8
VHH-025
100
AcDbLine
 10
-222.365838
 20
538.2
 30
0.0
 11
-222.568986
 21
545.75
 31
0.0
  0
LINE
  5
64
100
AcDbEntity
  8
VHH-025
100
AcDbLine
 10
-221.189959
 20
538.2
 30
0.0
 11
-221.412567
 21
545.75
 31
0.0
  0
LINE
  5
65
100
AcDbEntity
  8
VHH-025
100
AcDbLine
 10
-221.189959
 20
538.2
 30
0.0
 11
-222.046771
 21
546.3
 31
0.0
  0
LINE
  5
66
100
AcDbEntity
  8
VHH-025
100
AcDbLine
 10
-218.741513
 20
538.2
 30
0.0
 11
-219.004644
 21
545.75
 31
0.0
  0
LINE
  5
67
100
AcDbEntity
  8
VHH-035
100
AcDbLine
 10
-218.640237
 20
536.2
 30
0.0
 11
-218.974644
 21
545.776175
 31
0.0
  0
LINE
  5
68
100
AcDbEntity
  8
VHH-025
100
AcDbLine
 10
-220.226198
 20
538.2
 30
0.0
 11
-220.464758
 21
545.75
 31
0.0
  0
LINE
  5
69
100
AcDbEntity
  8
VHH-025
100
AcDbLine
 10
-219.489756
 20
538.2
 30
0.0
 11
-219.740503
 21
545.75
 31
0.0
  0
LINE
  5
6A
100
AcDbEntity
  8
VHH-025
100
AcDbLine
 10
-219.489756
 20
538.2
 30
0.0
 11
-220.46439
 21
546.3
 31
0.0
  0
LINE
  5
6B
100
AcDbEntity
  8
VHH-025
100
AcDbLine
 10
-218.992245
 20
538.2
 30
0.0
 11
-219.251227
 21
545.75
 31
0.0
  0
LINE
  5
6C
100
AcDbEntity
  8
VHH-025
100
AcDbLine
 10
-225.276724
 20
538.2
 30
0.0
 11
-225.431695
 21
545.75
 31
0.0
  0
LINE
  5
6D
100
AcDbEntity
  8
035-DWG
100
AcDbLine
 10
-290.240237
 20
511.0
 30
0.0
 11
-294.240237
 21
510.860317
 31
0.0
  0
LWPOLYLINE
  5
6E
100
AcDbEntity
  8
035-DWG
100
AcDbPolyline
 90
        3
 70
     0
 43
0.0
 10
-290.240237
 20
512.429874
 10
-292.249122
 20
512.520671
 10
-294.247891
 20
512.611342
  0
LWPOLYLINE
  5
6F
100
AcDbEntity
  8
025-DWG
100
AcDbPolyline
 90
        3
 70
     0
 43
0.0
 10
-294.240814
 20
511.647552
 10
-292.245688
 20
511.575682
 10
-290.240237
 20
511.503812
  0
LINE
  5
70
100
AcDbEntity
  8
VHH-035
100
AcDbLine
 10
-294.337834
 20
514.0
 30
0.0
 11
-240.440237
 21
514.0
 31
0.0
  0
LINE
  5
71
100
AcDbEntity
  8
035-DWG
100
AcDbLine
 10
-297.909578
 20
518.0
 30
0.0
 11
-295.655862
 21
518.0
 31
0.0
  0
LINE
  5
72
100
AcDbEntity
  8
035-DWG
100
AcDbLine
 10
-295.219397
 20
518.0
 30
0.0
 11
-295.655862
 21
518.0
 31
0.0
  0
LINE
  5
73
100
AcDbEntity
  8
035-DWG
100
AcDbLine
 10
-294.539864
 20
518.0
 30
0.0
 11
-295.219397
 21
518.0
 31
0.0
  0
LINE
  5
74
100
AcDbEntity
  8
035-DWG
100
AcDbLine
 10
-294.240237
 20
512.5
 30
0.0
 11
-294.240237
 21
511.647531
 31
0.0
  0
LWPOLYLINE
  5
75
100
AcDbEntity
  8
035-DWG
100
AcDbPolyline
 90
        3
 70
     0
 43
0.0
 10
-294.240815
 20
510.867727
 10
-294.24052
 20
510.863952
 10
-294.240237
 20
510.860317
  0
LINE
  5
76
100
AcDbEntity
  8
035-DWG
100
AcDbLine
 10
-294.240814
 20
511.647552
 30
0.0
 11
-294.240814
 21
510.867728
 31
0.0
  0
LWPOLYLINE
  5
77
100
AcDbEntity
  8
035-DWG
100
AcDbPolyline
 90
       41
 70
     0
 43
0.0
 10
-294.240237
 20
512.5
 10
-294.240493
 20
512.503679
 10
-294.241262
 20
512.514782
 10
-294.242549
 20
512.533405
 10
-294.244356
 20
512.559644
 10
-294.246685
 20
512.593597
 10
-294.249539
 20
512.635361
 10
-294.252922
 20
512.685031
 10
-294.256837
 20
512.742705
 10
-294.261282
 20
512.80845
 10
-294.266244
 20
512.882223
 10
-294.271707
 20
512.963962
 10
-294.277655
 20
513.0536
 10
-294.284073
 20
513.151074
 10
-294.290945
 20
513.256319
 10
-294.298254
 20
513.369271
 10
-294.305985
 20
513.489865
 10
-294.31412
 20
513.618038
 10
-294.322632
 20
513.753636
 10
-294.331491
 20
513.89646
 10
-294.34067
 20
514.046306
 10
-294.35014
 20
514.202975
 10
-294.359871
 20
514.366264
 10
-294.369835
 20
514.535973
 10
-294.380004
 20
514.711901
 10
-294.390345
 20
514.893826
 10
-294.400823
 20
515.081437
 10
-294.411406
 20
515.274396
 10
-294.422062
 20
515.472366
 10
-294.432756
 20
515.67501
 10
-294.443457
 20
515.88199
 10
-294.454131
 20
516.09297
 10
-294.464746
 20
516.307612
 10
-294.474119
 20
516.501422
 10
-294.483542
 20
516.700568
 10
-294.492992
 20
516.904915
 10
-294.502447
 20
517.114329
 10
-294.511884
 20
517.328679
 10
-294.521281
 20
517.547829
 10
-294.530615
 20
517.771647
 10
-294.539864
 20
518.0
  0
LINE
  5
78
100
AcDbEntity
  8
035-DWG
100
AcDbLine
 10
-298.804421
 20
514.457484
 30
0.0
 11
-297.909578
 21
514.457484
 31
0.0
  0
LINE
  5
79
100
AcDbEntity
  8
VHH-035
100
AcDbLine
 10
-242.640237
 20
491.0
 30
0.0
 11
-242.640237
 21
493.0
 31
0.0
  0
LINE
  5
7A
100
AcDbEntity
  8
VHH-035
100
AcDbLine
 10
-226.640237
 20
491.0
 30
0.0
 11
-226.640237
 21
493.0
 31
0.0
  0
LINE
  5
7B
100
AcDbEntity
  8
VHH-035
100
AcDbLine
 10
-227.640237
 20
490.0
 30
0.0
 11
-241.640237
 21
490.0
 31
0.0
  0
ARC
  5
7C
100
AcDbEntity
  8
VHH-035
100
AcDbCircle
 10
-227.640237
 20
491.0
 30
0.0
 40
1.0
100
AcDbArc
 50
270.0
 51
0.0
  0
ARC
  5
7D
100
AcDbEntity
  8
VHH-035
100
AcDbCircle
 10
-241.640237
 20
491.0
 30
0.0
 40
1.0
100
AcDbArc
 50
180.0
 51
270.0
  0
LINE
  5
7E
100
AcDbEntity
  8
035-DWG
100
AcDbLine
 10
-290.240237
 20
511.003681
 30
0.0
 11
-290.240237
 21
511.0
 31
0.0
  0
LINE
  5
7F
100
AcDbEntity
  8
035-DWG
100
AcDbLine
 10
-290.240237
 20
511.003681
 30
0.0
 11
-290.240237
 21
511.503812
 31
0.0
  0
LINE
  5
80
100
AcDbEntity
  8
035-DWG
100
AcDbLine
 10
-290.240237
 20
511.503812
 30
0.0
 11
-290.240237
 21
512.429874
 31
0.0
  0
LINE
  5
81
100
AcDbEntity
  8
VHH-035
100
AcDbLine
 10
-226.640237
 20
493.0
 30
0.0
 11
-242.640237
 21
493.0
 31
0.0
  0
LINE
  5
82
100
AcDbEntity
  8
VHH-035
100
AcDbLine
 10
-226.640237
 20
496.0
 30
0.0
 11
-242.640237
 21
496.0
 31
0.0
  0
LINE
  5
83
100
AcDbEntity
  8
VHH-025
100
AcDbLine
 10
-228.775954
 20
538.2
 30
0.0
 11
-226.965824
 21
538.2
 31
0.0
  0
LINE
  5
84
100
AcDbEntity
  8
VHH-025
100
AcDbLine
 10
-233.125062
 20
538.2
 30
0.0
 11
-231.159971
 21
538.2
 31
0.0
  0
LINE
  5
85
100
AcDbEntity
  8
VHH-025
100
AcDbLine
 10
-236.155411
 20
538.2
 30
0.0
 11
-238.120502
 21
538.2
 31
0.0
  0
ARC
  5
86
100
AcDbEntity
  8
VHH-035
100
AcDbCircle
 10
-224.640237
 20
494.5
 30
0.0
 40
2.5
100
AcDbArc
 50
143.130102
 51
216.869898
  0
LINE
  5
87
100
AcDbEntity
  8
VHH-035
100
AcDbLine
 10
-226.640237
 20
496.0
 30
0.0
 11
-226.640237
 21
508.0
 31
0.0
  0
LINE
  5
88
100
AcDbEntity
  8
VHH-025
100
AcDbLine
 10
-240.504519
 20
538.2
 30
0.0
 11
-242.314649
 21
538.2
 31
0.0
  0
LINE
  5
89
100
AcDbEntity
  8
VHH-025
100
AcDbLine
 10
-244.003749
 20
538.2
 30
0.0
 11
-245.54518
 21
538.2
 31
0.0
  0
LINE
  5
8A
100
AcDbEntity
  8
VHH-025
100
AcDbLine
 10
-246.914635
 20
538.2
 30
0.0
 11
-248.090514
 21
538.2
 31
0.0
  0
ARC
  5
8B
100
AcDbEntity
  8
VHH-035
100
AcDbCircle
 10
-244.640237
 20
508.0
 30
0.0
 40
2.0
100
AcDbArc
 50
0.0
 51
90.0
  0
ARC
  5
8C
100
AcDbEntity
  8
VHH-035
100
AcDbCircle
 10
-243.801137
 20
511.0
 30
0.0
 40
1.0
100
AcDbArc
 50
190.0
 51
270.0
  0
LINE
  5
8D
100
AcDbEntity
  8
VHH-035
100
AcDbLine
 10
-244.785945
 20
510.826352
 30
0.0
 11
-245.345544
 21
514.0
 31
0.0
  0
LINE
  5
8E
100
AcDbEntity
  8
VHH-035
100
AcDbLine
 10
-240.440237
 20
514.0
 30
0.0
 11
-240.440237
 21
529.11134
 31
0.0
  0
ARC
  5
8F
100
AcDbEntity
  8
VHH-035
100
AcDbCircle
 10
-244.640237
 20
494.5
 30
0.0
 40
2.5
100
AcDbArc
 50
323.130102
 51
36.869898
  0
LINE
  5
90
100
AcDbEntity
  8
VHH-035
100
AcDbLine
 10
-242.640237
 20
496.0
 30
0.0
 11
-242.640237
 21
508.0
 31
0.0
  0
LINE
  5
91
100
AcDbEntity
  8
VHH-035
100
AcDbLine
 10
-250.642674
 20
535.930201
 30
0.0
 11
-250.640237
 21
536.0
 31
0.0
  0
LINE
  5
92
100
AcDbEntity
  8
VHH-025
100
AcDbLine
 10
-250.288228
 20
538.2
 30
0.0
 11
-250.570395
 21
538.2
 31
0.0
  0
LINE
  5
93
100
AcDbEntity
  8
VHH-035
100
AcDbLine
 10
-250.426398
 20
510.826352
 30
0.0
 11
-250.985998
 21
514.0
 31
0.0
  0
LINE
  5
94
100
AcDbEntity
  8
VHH-025
100
AcDbLine
 10
-249.054275
 20
538.2
 30
0.0
 11
-249.790718
 21
538.2
 31
0.0
  0
ARC
  5
95
100
AcDbEntity
  8
VHH-035
100
AcDbCircle
 10
-249.44159
 20
511.0
 30
0.0
 40
1.0
100
AcDbArc
 50
190.0
 51
270.0
  0
ARC
  5
96
100
AcDbEntity
  8
VHH-035
100
AcDbCircle
 10
-230.924323
 20
554.19737
 30
0.0
 40
26.830235
100
AcDbArc
 50
222.706354
 51
249.226702
  0
LINE
  5
97
100
AcDbEntity
  8
VHH-025
100
AcDbLine
 10
-222.365838
 20
538.2
 30
0.0
 11
-221.189959
 21
538.2
 31
0.0
  0
LINE
  5
98
100
AcDbEntity
  8
VHH-025
100
AcDbLine
 10
-225.276724
 20
538.2
 30
0.0
 11
-223.735293
 21
538.2
 31
0.0
  0
LINE
  5
99
100
AcDbEntity
  8
VHH-025
100
AcDbLine
 10
-220.226198
 20
538.2
 30
0.0
 11
-219.489756
 21
538.2
 31
0.0
  0
LINE
  5
9A
100
AcDbEntity
  8
VHH-025
100
AcDbLine
 10
-218.992245
 20
538.2
 30
0.0
 11
-218.710078
 21
538.2
 31
0.0
  0
ARC
  5
9B
100
AcDbEntity
  8
VHH-035
100
AcDbCircle
 10
-218.767827
 20
511.0
 30
0.0
 40
1.0
100
AcDbArc
 50
270.0
 51
2.0
  0
LINE
  5
9C
100
AcDbEntity
  8
VHH-035
100
AcDbLine
 10
-217.768436
 20
511.034899
 30
0.0
 11
-218.640237
 21
536.0
 31
0.0
  0
LINE
  5
9D
100
AcDbEntity
  8
VHH-035
100
AcDbLine
 10
-218.767827
 20
510.0
 30
0.0
 11
-249.44159
 21
510.0
 31
0.0
  0
LINE
  5
9E
100
AcDbEntity
  8
VHH-035
100
AcDbLine
 10
-250.640237
 20
536.0
 30
0.0
 11
-218.640237
 21
536.0
 31
0.0
  0
LINE
  5
9F
100
AcDbEntity
  8
VHH-035
100
AcDbLine
 10
-250.640237
 20
536.2
 30
0.0
 11
-218.640237
 21
536.2
 31
0.0
  0
ARC
  5
A0
100
AcDbEntity
  8
VHH-035
100
AcDbCircle
 10
-224.640237
 20
508.0
 30
0.0
 40
2.0
100
AcDbArc
 50
90.0
 51
180.0
  0
LINE
  5
A1
100
AcDbEntity
  8
VHH-035
100
AcDbLine
 10
-288.670107
 20
540.160356
 30
0.0
 11
-298.804421
 21
542.026281
 31
0.0
  0
ARC
  5
A2
100
AcDbEntity
  8
VHH-035
100
AcDbCircle
 10
-278.917021
 20
553.168034
 30
0.0
 40
9.23749
100
AcDbArc
 50
250.475796
 51
272.958583
  0
ARC
  5
A3
100
AcDbEntity
  8
VHH-035
100
AcDbCircle
 10
-297.496048
 20
561.15387
 30
0.0
 40
22.773337
100
AcDbArc
 50
292.802506
 51
312.864037
  0
LINE
  5
A4
100
AcDbEntity
  8
VHH-035
100
AcDbLine
 10
-242.140237
 20
546.5
 30
0.0
 11
-228.640237
 21
546.5
 31
0.0
  0
ARC
  5
A5
100
AcDbEntity
  8
VHH-035
100
AcDbCircle
 10
-221.482542
 20
548.934543
 30
0.0
 40
25.0
100
AcDbArc
 50
125.807709
 51
155.0
  0
ARC
  5
A6
100
AcDbEntity
  8
VHH-035
100
AcDbCircle
 10
-223.203896
 20
565.698272
 30
0.0
 40
5.0
100
AcDbArc
 50
165.277858
 51
217.324284
  0
ARC
  5
A7
100
AcDbEntity
  8
VHH-025
100
AcDbCircle
 10
-228.086951
 20
545.722576
 30
0.0
 40
0.99449
100
AcDbArc
 50
1.580191
 51
51.419375
  0
ARC
  5
A8
100
AcDbEntity
  8
VHH-025
100
AcDbCircle
 10
-227.791739
 20
546.246677
 30
0.0
 40
0.34123
100
AcDbArc
 50
8.9903
 51
47.934725
  0
ARC
  5
A9
100
AcDbEntity
  8
VHH-025
100
AcDbCircle
 10
-237.446979
 20
546.289972
 30
0.0
 40
0.421276
100
AcDbArc
 50
150.095791
 51
178.636048
  0
ARC
  5
AA
100
AcDbEntity
  8
VHH-025
100
AcDbCircle
 10
-231.833495
 20
546.289972
 30
0.0
 40
0.421276
100
AcDbArc
 50
1.363952
 51
29.904209
  0
ARC
  5
AB
100
AcDbEntity
  8
VHH-025
100
AcDbCircle
 10
-232.579822
 20
545.801283
 30
0.0
 40
1.355254
100
AcDbArc
 50
357.831411
 51
31.035013
  0
ARC
  5
AC
100
AcDbEntity
  8
VHH-025
100
AcDbCircle
 10
-235.043767
 20
545.88672
 30
0.0
 40
1.890611
100
AcDbArc
 50
355.853014
 51
18.928126
  0
ARC
  5
AD
100
AcDbEntity
  8
VHH-025
100
AcDbCircle
 10
-234.236706
 20
545.88672
 30
0.0
 40
1.890611
100
AcDbArc
 50
161.071874
 51
184.146986
  0
ARC
  5
AE
100
AcDbEntity
  8
VHH-025
100
AcDbCircle
 10
-236.700651
 20
545.801283
 30
0.0
 40
1.355254
100
AcDbArc
 50
148.964987
 51
182.168589
  0
ARC
  5
AF
100
AcDbEntity
  8
VHH-035
100
AcDbCircle
 10
-232.334985
 20
557.929646
 30
0.0
 40
4.0
100
AcDbArc
 50
136.549309
 51
264.0
  0
ARC
  5
B0
100
AcDbEntity
  8
VHH-025
100
AcDbCircle
 10
-229.814953
 20
545.820569
 30
0.0
 40
0.944582
100
AcDbArc
 50
355.715503
 51
45.996151
  0
ARC
  5
B1
100
AcDbEntity
  8
VHH-035
100
AcDbCircle
 10
-198.45364
 20
525.832821
 30
0.0
 40
50.670673
100
AcDbArc
 50
126.175476
 51
136.549309
  0
LINE
  5
B2
100
AcDbEntity
  8
VHH-035
100
AcDbLine
 10
-228.274387
 20
553.480827
 30
0.0
 11
-232.553824
 21
553.930614
 31
0.0
  0
ARC
  5
B3
100
AcDbEntity
  8
VHH-035
100
AcDbCircle
 10
-231.926653
 20
559.897745
 30
0.0
 40
6.0
100
AcDbArc
 50
134.497865
 51
264.0
  0
ARC
  5
B4
100
AcDbEntity
  8
VHH-025
100
AcDbCircle
 10
-248.602904
 20
546.286574
 30
0.0
 40
0.213601
100
AcDbArc
 50
92.321809
 51
176.396337
  0
ARC
  5
B5
100
AcDbEntity
  8
VHH-025
100
AcDbCircle
 10
-247.965098
 20
545.657295
 30
0.0
 40
0.855654
100
AcDbArc
 50
99.980708
 51
173.780152
  0
ARC
  5
B6
100
AcDbEntity
  8
VHH-035
100
AcDbCircle
 10
-242.140237
 20
548.5
 30
0.0
 40
2.0
100
AcDbArc
 50
180.0
 51
270.0
  0
ARC
  5
B7
100
AcDbEntity
  8
VHH-025
100
AcDbCircle
 10
-243.044778
 20
545.774683
 30
0.0
 40
0.804379
100
AcDbArc
 50
115.616291
 51
181.758476
  0
ARC
  5
B8
100
AcDbEntity
  8
VHH-025
100
AcDbCircle
 10
-241.488734
 20
546.246677
 30
0.0
 40
0.34123
100
AcDbArc
 50
132.065275
 51
171.0097
  0
ARC
  5
B9
100
AcDbEntity
  8
VHH-025
100
AcDbCircle
 10
-239.46552
 20
545.820569
 30
0.0
 40
0.944582
100
AcDbArc
 50
134.003849
 51
184.284497
  0
ARC
  5
BA
100
AcDbEntity
  8
VHH-025
100
AcDbCircle
 10
-241.193522
 20
545.722576
 30
0.0
 40
0.99449
100
AcDbArc
 50
128.580625
 51
178.419809
  0
ARC
  5
BB
100
AcDbEntity
  8
VHH-025
100
AcDbCircle
 10
-246.991207
 20
546.259874
 30
0.0
 40
0.245793
100
AcDbArc
 50
102.326831
 51
170.604314
  0
ARC
  5
BC
100
AcDbEntity
  8
VHH-025
100
AcDbCircle
 10
-244.67107
 20
546.321112
 30
0.0
 40
0.180679
100
AcDbArc
 50
98.074916
 51
186.710338
  0
ARC
  5
BD
100
AcDbEntity
  8
VHH-025
100
AcDbCircle
 10
-245.888684
 20
545.707334
 30
0.0
 40
0.823909
100
AcDbArc
 50
105.829218
 51
177.031654
  0
ARC
  5
BE
100
AcDbEntity
  8
VHH-025
100
AcDbCircle
 10
-244.5873
 20
545.762464
 30
0.0
 40
0.777499
100
AcDbArc
 50
108.449943
 51
180.918575
  0
LINE
  5
BF
100
AcDbEntity
  8
VHH-035
100
AcDbLine
 10
-244.140237
 20
559.5
 30
0.0
 11
-244.140237
 21
548.5
 31
0.0
  0
LINE
  5
C0
100
AcDbEntity
  8
VHH-035
100
AcDbLine
 10
-244.140237
 20
559.5
 30
0.0
 11
-244.140237
 21
556.5
 31
0.0
  0
LINE
  5
C1
100
AcDbEntity
  8
VHH-035
100
AcDbLine
 10
-244.140237
 20
556.5
 30
0.0
 11
-244.140237
 21
559.5
 31
0.0
  0
LINE
  5
C2
100
AcDbEntity
  8
VHH-035
100
AcDbLine
 10
-244.140237
 20
559.5
 30
0.0
 11
-244.140237
 21
556.5
 31
0.0
  0
ARC
  5
C3
100
AcDbEntity
  8
VHH-025
100
AcDbCircle
 10
-247.108027
 20
545.74734
 30
0.0
 40
0.759883
100
AcDbArc
 50
97.905868
 51
179.799397
  0
ARC
  5
C4
100
AcDbEntity
  8
VHH-035
100
AcDbCircle
 10
-249.556286
 20
545.75
 30
0.0
 40
0.75
100
AcDbArc
 50
90.0
 51
178.0
  0
ARC
  5
C5
100
AcDbEntity
  8
VHH-025
100
AcDbCircle
 10
-249.508395
 20
545.732393
 30
0.0
 40
0.767636
100
AcDbArc
 50
89.502437
 51
178.68571
  0
ARC
  5
C6
100
AcDbEntity
  8
VHH-025
100
AcDbCircle
 10
-249.196773
 20
545.666262
 30
0.0
 40
0.836674
100
AcDbArc
 50
94.801375
 51
174.255958
  0
ARC
  5
C7
100
AcDbEntity
  8
VHH-025
100
AcDbCircle
 10
-248.742049
 20
545.702213
 30
0.0
 40
0.799351
100
AcDbArc
 50
93.584
 51
176.572659
  0
ARC
  5
C8
100
AcDbEntity
  8
VHH-035
100
AcDbCircle
 10
-241.85198
 20
615.924908
 30
0.0
 40
49.329327
100
AcDbArc
 50
295.720623
 51
303.410632
  0
ARC
  5
C9
100
AcDbEntity
  8
VHH-025
100
AcDbCircle
 10
-224.609403
 20
546.321112
 30
0.0
 40
0.180679
100
AcDbArc
 50
353.289662
 51
81.925084
  0
ARC
  5
CA
100
AcDbEntity
  8
VHH-025
100
AcDbCircle
 10
-222.289266
 20
546.259874
 30
0.0
 40
0.245793
100
AcDbArc
 50
9.395686
 51
77.673169
  0
ARC
  5
CB
100
AcDbEntity
  8
VHH-025
100
AcDbCircle
 10
-224.693173
 20
545.762464
 30
0.0
 40
0.777499
100
AcDbArc
 50
359.081425
 51
71.550057
  0
ARC
  5
CC
100
AcDbEntity
  8
VHH-025
100
AcDbCircle
 10
-223.391789
 20
545.707334
 30
0.0
 40
0.823909
100
AcDbArc
 50
2.968346
 51
74.170782
  0
ARC
  5
CD
100
AcDbEntity
  8
VHH-025
100
AcDbCircle
 10
-222.172446
 20
545.74734
 30
0.0
 40
0.759883
100
AcDbArc
 50
0.200603
 51
82.094132
  0
ARC
  5
CE
100
AcDbEntity
  8
VHH-025
100
AcDbCircle
 10
-220.0837
 20
545.666262
 30
0.0
 40
0.836674
100
AcDbArc
 50
5.744042
 51
85.198625
  0
ARC
  5
CF
100
AcDbEntity
  8
VHH-025
100
AcDbCircle
 10
-219.772078
 20
545.732393
 30
0.0
 40
0.767636
100
AcDbArc
 50
1.31429
 51
90.497563
  0
ARC
  5
D0
100
AcDbEntity
  8
VHH-025
100
AcDbCircle
 10
-220.677569
 20
546.286574
 30
0.0
 40
0.213601
100
AcDbArc
 50
3.603663
 51
87.678191
  0
ARC
  5
D1
100
AcDbEntity
  8
VHH-035
100
AcDbCircle
 10
-219.724187
 20
545.75
 30
0.0
 40
0.75
100
AcDbArc
 50
2.0
 51
90.0
  0
ARC
  5
D2
100
AcDbEntity
  8
VHH-025
100
AcDbCircle
 10
-220.538424
 20
545.702213
 30
0.0
 40
0.799351
100
AcDbArc
 50
3.427341
 51
86.416
  0
ARC
  5
D3
100
AcDbEntity
  8
VHH-025
100
AcDbCircle
 10
-221.315375
 20
545.657295
 30
0.0
 40
0.855654
100
AcDbArc
 50
6.219848
 51
80.019292
  0
LINE
  5
D4
100
AcDbEntity
  8
VHH-035
100
AcDbLine
 10
-219.724187
 20
546.5
 30
0.0
 11
-249.556286
 21
546.5
 31
0.0
  0
ARC
  5
D5
100
AcDbEntity
  8
VHH-035
100
AcDbCircle
 10
-199.755805
 20
518.369425
 30
0.0
 40
62.5
100
AcDbArc
 50
108.113958
 51
125.566996
  0
ARC
  5
D6
100
AcDbEntity
  8
VHH-035
100
AcDbCircle
 10
-228.640237
 20
550.0
 30
0.0
 40
3.5
100
AcDbArc
 50
336.978578
 51
84.0
  0
ARC
  5
D7
100
AcDbEntity
  8
VHH-035
100
AcDbCircle
 10
-228.640237
 20
550.0
 30
0.0
 40
3.5
100
AcDbArc
 50
270.0
 51
336.978578
  0
ARC
  5
D8
100
AcDbEntity
  8
VHH-035
100
AcDbCircle
 10
-238.370255
 20
554.134442
 30
0.0
 40
14.071985
100
AcDbArc
 50
336.978578
 51
37.324284
  0
ARC
  5
D9
100
AcDbEntity
  8
VHH-025
100
AcDbCircle
 10
-226.235695
 20
545.774683
 30
0.0
 40
0.804379
100
AcDbArc
 50
358.241524
 51
64.383709
  0
ARC
  5
DA
100
AcDbEntity
  8
VHH-035
100
AcDbCircle
 10
-198.45364
 20
525.832821
 30
0.0
 40
50.670673
100
AcDbArc
 50
115.720623
 51
126.175476
  0
ARC
  5
DB
100
AcDbEntity
  8
VHH-035
100
AcDbCircle
 10
-198.45364
 20
525.832821
 30
0.0
 40
53.758367
100
AcDbArc
 50
115.720623
 51
134.497865
  0
LINE
  5
DC
100
AcDbEntity
  8
035-DWG
100
AcDbLine
 10
-387.242135
 20
764.252538
 30
0.0
 11
-271.71103
 21
684.678731
 31
0.0
  0
LINE
  5
DD
100
AcDbEntity
  8
035-DWG
100
AcDbLine
 10
-390.645552
 20
759.311206
 30
0.0
 11
-275.114447
 21
679.7374
 31
0.0
  0
LINE
  5
DE
100
AcDbEntity
  8
025-DWG
100
AcDbLine
 10
-295.440237
 20
786.069091
 30
0.0
 11
-400.240237
 21
786.069091
 31
0.0
  0
LINE
  5
DF
100
AcDbEntity
  8
035-DWG
100
AcDbLine
 10
-400.240237
 20
789.569091
 30
0.0
 11
-298.940237
 21
789.569091
 31
0.0
  0
LINE
  5
E0
100
AcDbEntity
  8
035-DWG
100
AcDbLine
 10
-301.940237
 20
791.069091
 30
0.0
 11
-400.240237
 21
791.069091
 31
0.0
  0
LINE
  5
E1
100
AcDbEntity
  8
035-DWG
100
AcDbLine
 10
-505.040237
 20
776.069091
 30
0.0
 11
-295.440237
 21
776.069091
 31
0.0
  0
LINE
  5
E2
100
AcDbEntity
  8
035-DWG
100
AcDbLine
 10
-498.540237
 20
791.069091
 30
0.0
 11
-400.240237
 21
791.069091
 31
0.0
  0
LINE
  5
E3
100
AcDbEntity
  8
035-DWG
100
AcDbLine
 10
-400.240237
 20
789.569091
 30
0.0
 11
-501.540237
 21
789.569091
 31
0.0
  0
LINE
  5
E4
100
AcDbEntity
  8
025-DWG
100
AcDbLine
 10
-505.040237
 20
786.069091
 30
0.0
 11
-400.240237
 21
786.069091
 31
0.0
  0
LINE
  5
E5
100
AcDbEntity
  8
035-DWG
100
AcDbLine
 10
-505.040237
 20
786.069091
 30
0.0
 11
-505.040237
 21
776.069091
 31
0.0
  0
POINT
  5
E6
100
AcDbEntity
  8
DEFPOINTS
  6
BYBLOCK
 62
     0
100
AcDbPoint
 10
-501.540237
 20
789.569091
 30
0.0
  0
ARC
  5
E8
100
AcDbEntity
  8
035-DWG
100
AcDbCircle
 10
-501.540237
 20
786.069091
 30
0.0
 40
3.5
100
AcDbArc
 50
90.0
 51
180.0
  0
ARC
  5
E9
100
AcDbEntity
  8
035-DWG
100
AcDbCircle
 10
-494.090237
 20
792.369091
 30
0.0
 40
2.8
100
AcDbArc
 50
207.664004
 51
332.335996
  0
ARC
  5
EA
100
AcDbEntity
  8
035-DWG
100
AcDbCircle
 10
-498.540237
 20
793.069091
 30
0.0
 40
2.0
100
AcDbArc
 50
180.0
 51
270.0
  0
CIRCLE
  5
EB
100
AcDbEntity
  8
035-DWG
100
AcDbCircle
 10
-400.240237
 20
769.562434
 30
0.0
 40
2.6
  0
LINE
  5
EC
100
AcDbEntity
  8
035-DWG
100
AcDbLine
 10
-401.780641
 20
776.876788
 30
0.0
 11
-390.281511
 21
768.956586
 31
0.0
  0
POLYLINE
  5
ED
100
AcDbEntity
  8
035-DWG
100
AcDb2dPolyline
 66
     1
 10
0.0
 20
0.0
 30
0.0
 70
     2
  0
VERTEX
  5
EE
100
AcDbEntity
  8
035-DWG
100
AcDbVertex
100
AcDb2dVertex
 10
-407.623174
 20
768.394169
 30
0.0
 42
-0.028161
  0
VERTEX
  5
EF
100
AcDbEntity
  8
035-DWG
100
AcDbVertex
100
AcDb2dVertex
 10
-406.531216
 20
770.748823
 30
0.0
 42
-0.028161
 70
     1
  0
VERTEX
  5
F0
100
AcDbEntity
  8
035-DWG
100
AcDbVertex
100
AcDb2dVertex
 10
-405.181568
 20
772.965851
 30
0.0
 42
-0.028161
  0
VERTEX
  5
F1
100
AcDbEntity
  8
035-DWG
100
AcDbVertex
100
AcDb2dVertex
 10
-403.591328
 20
775.017169
 30
0.0
 42
-0.028161
 70
     1
  0
VERTEX
  5
F2
100
AcDbEntity
  8
035-DWG
100
AcDbVertex
100
AcDb2dVertex
 10
-401.780641
 20
776.876788
 30
0.0
  0
SEQEND
  5
F3
100
AcDbEntity
  8
035-DWG
  0
LINE
  5
F4
100
AcDbEntity
  8
035-DWG
100
AcDbLine
 10
-407.623174
 20
768.394169
 30
0.0
 11
-396.124043
 21
760.473968
 31
0.0
  0
ARC
  5
F5
100
AcDbEntity
  8
035-DWG
100
AcDbCircle
 10
-384.405954
 20
768.370313
 30
0.0
 40
5.0
100
AcDbArc
 50
217.461788
 51
235.442281
  0
ARC
  5
F6
100
AcDbEntity
  8
035-DWG
100
AcDbCircle
 10
-393.481733
 20
755.193431
 30
0.0
 40
5.0
100
AcDbArc
 50
55.442281
 51
73.422773
  0
ARC
  5
F7
100
AcDbEntity
  8
035-DWG
100
AcDbCircle
 10
-384.97937
 20
769.118636
 30
0.0
 40
5.0
100
AcDbArc
 50
201.261967
 51
217.461788
  0
LINE
  5
F8
100
AcDbEntity
  8
035-DWG
100
AcDbLine
 10
-388.948166
 20
766.077475
 30
0.0
 11
-388.37475
 21
765.329152
 31
0.0
  0
LINE
  5
F9
100
AcDbEntity
  8
035-DWG
100
AcDbLine
 10
-390.281511
 20
768.956586
 30
0.0
 11
-389.639031
 21
767.305473
 31
0.0
  0
LWPOLYLINE
  5
FA
100
AcDbEntity
  8
025-DWG
100
AcDbPolyline
 90
        3
 70
     0
 43
0.0
 10
-391.358108
 20
764.970866
 42
0.036834
 10
-390.792165
 20
766.303974
 42
0.068936
 10
-390.281511
 20
768.956586
  0
LINE
  5
FB
100
AcDbEntity
  8
035-DWG
100
AcDbLine
 10
-396.124043
 20
760.473968
 30
0.0
 11
-394.352371
 21
760.462298
 31
0.0
  0
ARC
  5
FC
100
AcDbEntity
  8
035-DWG
100
AcDbCircle
 10
-394.385306
 20
755.462406
 30
0.0
 40
5.0
100
AcDbArc
 50
73.422773
 51
89.622595
  0
LINE
  5
FD
100
AcDbEntity
  8
035-DWG
100
AcDbLine
 10
-392.958769
 20
760.254587
 30
0.0
 11
-392.055196
 21
759.985611
 31
0.0
  0
LWPOLYLINE
  5
FE
100
AcDbEntity
  8
025-DWG
100
AcDbPolyline
 90
        3
 70
     0
 43
0.0
 10
-396.124043
 20
760.473968
 42
0.068936
 10
-393.827747
 20
761.896692
 42
0.01937
 10
-393.260196
 20
762.405706
 42
0.068936
  0
ARC
  5
FF
100
AcDbEntity
  8
035-DWG
100
AcDbCircle
 10
-273.412739
 20
682.208065
 30
0.0
 40
3.0
100
AcDbArc
 50
235.442281
 51
55.442281
  0
ARC
  5
100
100
AcDbEntity
  8
035-DWG
100
AcDbCircle
 10
-306.390237
 20
792.369091
 30
0.0
 40
2.8
100
AcDbArc
 50
207.664004
 51
332.335996
  0
POINT
  5
101
100
AcDbEntity
  8
DEFPOINTS
  6
BYBLOCK
 62
     0
100
AcDbPoint
 10
-298.940237
 20
789.569091
 30
0.0
  0
ARC
  5
102
100
AcDbEntity
  8
035-DWG
100
AcDbCircle
 10
-301.940237
 20
793.069091
 30
0.0
 40
2.0
100
AcDbArc
 50
270.0
 51
360.0
  0
LINE
  5
103
100
AcDbEntity
  8
035-DWG
100
AcDbLine
 10
-295.440237
 20
786.069091
 30
0.0
 11
-295.440237
 21
776.069091
 31
0.0
  0
ARC
  5
104
100
AcDbEntity
  8
035-DWG
100
AcDbCircle
 10
-298.940237
 20
786.069091
 30
0.0
 40
3.5
100
AcDbArc
 50
0.0
 51
90.0
  0
ARC
  5
105
100
AcDbEntity
  8
VHH-035
100
AcDbCircle
 10
-213.967232
 20
602.554382
 30
0.0
 40
24.0
100
AcDbArc
 50
307.665933
 51
341.159855
  0
ARC
  5
106
100
AcDbEntity
  8
VHH-035
100
AcDbCircle
 10
-241.85198
 20
615.924908
 30
0.0
 40
46.241633
100
AcDbArc
 50
310.187569
 51
329.136447
  0
LINE
  5
107
100
AcDbEntity
  8
VHH-035
100
AcDbLine
 10
-200.714764
 20
593.009198
 30
0.0
 11
-199.305146
 21
591.938718
 31
0.0
  0
ARC
  5
108
100
AcDbEntity
  8
VHH-035
100
AcDbCircle
 10
-197.866602
 20
589.63819
 30
0.0
 40
5.0
100
AcDbArc
 50
114.666174
 51
149.136447
  0
LINE
  5
109
100
AcDbEntity
  8
VHH-035
100
AcDbLine
 10
-191.574926
 20
595.442093
 30
0.0
 11
-194.721338
 21
596.441463
 31
0.0
  0
LINE
  5
10A
100
AcDbEntity
  8
VHH-035
100
AcDbLine
 10
-191.284173
 20
595.199083
 30
0.0
 11
-197.437973
 21
592.373052
 31
0.0
  0
ARC
  5
10B
100
AcDbEntity
  8
VHH-035
100
AcDbCircle
 10
-191.726286
 20
594.965554
 30
0.0
 40
0.5
100
AcDbArc
 50
341.159855
 51
72.379007
  0
ARC
  5
10C
100
AcDbEntity
  8
VHH-035
100
AcDbCircle
 10
-194.872697
 20
595.964923
 30
0.0
 40
0.5
100
AcDbArc
 50
72.379007
 51
114.666174
  0
LINE
  5
10D
100
AcDbEntity
  8
VHH-035
100
AcDbLine
 10
-195.081362
 20
596.4193
 30
0.0
 11
-199.953256
 21
594.181964
 31
0.0
  0
ARC
  5
10E
100
AcDbEntity
  8
VHH-035
100
AcDbCircle
 10
-195.35132
 20
587.829278
 30
0.0
 40
5.0
100
AcDbArc
 50
114.666174
 51
148.85969
  0
LINE
  5
10F
100
AcDbEntity
  8
035-DWG
100
AcDbLine
 10
-325.777132
 20
907.859034
 30
0.0
 11
-373.983868
 21
909.363686
 31
0.0
  0
LINE
  5
110
100
AcDbEntity
  8
035-DWG
100
AcDbLine
 10
-292.390237
 20
900.269091
 30
0.0
 11
-400.240237
 21
900.269091
 31
0.0
  0
LINE
  5
111
100
AcDbEntity
  8
035-DWG
100
AcDbLine
 10
-290.590237
 20
893.469091
 30
0.0
 11
-400.240237
 21
893.469091
 31
0.0
  0
LINE
  5
112
100
AcDbEntity
  8
025-DWG
100
AcDbLine
 10
-290.590237
 20
898.469091
 30
0.0
 11
-400.240237
 21
898.469091
 31
0.0
  0
LINE
  5
113
100
AcDbEntity
  8
025-DWG
100
AcDbLine
 10
-299.940237
 20
879.970653
 30
0.0
 11
-400.240237
 21
879.970653
 31
0.0
  0
LINE
  5
114
100
AcDbEntity
  8
025-DWG
100
AcDbLine
 10
-299.940237
 20
874.970653
 30
0.0
 11
-400.240237
 21
874.970653
 31
0.0
  0
LINE
  5
115
100
AcDbEntity
  8
035-DWG
100
AcDbLine
 10
-409.240237
 20
900.269091
 30
0.0
 11
-409.240237
 21
928.745635
 31
0.0
  0
LINE
  5
116
100
AcDbEntity
  8
035-DWG
100
AcDbLine
 10
-391.240237
 20
900.269091
 30
0.0
 11
-391.240237
 21
928.745635
 31
0.0
  0
ARC
  5
117
100
AcDbEntity
  8
035-DWG
100
AcDbCircle
 10
-426.540237
 20
911.863305
 30
0.0
 40
2.5
100
AcDbArc
 50
271.0
 51
30.0
  0
ARC
  5
118
100
AcDbEntity
  8
035-DWG
100
AcDbCircle
 10
-373.940237
 20
911.863305
 30
0.0
 40
2.5
100
AcDbArc
 50
150.0
 51
269.0
  0
LINE
  5
119
100
AcDbEntity
  8
035-DWG
100
AcDbLine
 10
-474.703341
 20
907.859034
 30
0.0
 11
-426.496606
 21
909.363686
 31
0.0
  0
LINE
  5
11A
100
AcDbEntity
  8
035-DWG
100
AcDbLine
 10
-508.090237
 20
900.269091
 30
0.0
 11
-400.240237
 21
900.269091
 31
0.0
  0
LINE
  5
11B
100
AcDbEntity
  8
035-DWG
100
AcDbLine
 10
-509.890237
 20
893.469091
 30
0.0
 11
-400.240237
 21
893.469091
 31
0.0
  0
LINE
  5
11C
100
AcDbEntity
  8
025-DWG
100
AcDbLine
 10
-509.890237
 20
898.469091
 30
0.0
 11
-400.240237
 21
898.469091
 31
0.0
  0
LINE
  5
11D
100
AcDbEntity
  8
025-DWG
100
AcDbLine
 10
-500.540237
 20
874.970653
 30
0.0
 11
-400.240237
 21
874.970653
 31
0.0
  0
LINE
  5
11E
100
AcDbEntity
  8
025-DWG
100
AcDbLine
 10
-500.540237
 20
879.970653
 30
0.0
 11
-400.240237
 21
879.970653
 31
0.0
  0
LINE
  5
11F
100
AcDbEntity
  8
035-DWG
100
AcDbLine
 10
-500.540237
 20
879.970653
 30
0.0
 11
-500.540237
 21
893.469091
 31
0.0
  0
LINE
  5
120
100
AcDbEntity
  8
035-DWG
100
AcDbLine
 10
-509.890237
 20
893.469091
 30
0.0
 11
-509.890237
 21
898.469091
 31
0.0
  0
ARC
  5
121
100
AcDbEntity
  8
035-DWG
100
AcDbCircle
 10
-508.090237
 20
898.469091
 30
0.0
 40
1.8
100
AcDbArc
 50
90.0
 51
180.0
  0
ARC
  5
122
100
AcDbEntity
  8
035-DWG
100
AcDbCircle
 10
-500.540237
 20
877.470653
 30
0.0
 40
2.5
100
AcDbArc
 50
270.0
 51
90.0
  0
LINE
  5
123
100
AcDbEntity
  8
035-DWG
100
AcDbLine
 10
-482.293283
 20
900.269091
 30
0.0
 11
-474.703341
 21
907.859034
 31
0.0
  0
LINE
  5
124
100
AcDbEntity
  8
035-DWG
100
AcDbLine
 10
-476.982688
 20
905.579686
 30
0.0
 11
-482.293283
 21
900.269091
 31
0.0
  0
LINE
  5
125
100
AcDbEntity
  8
035-DWG
100
AcDbLine
 10
-426.496606
 20
909.363686
 30
0.0
 11
-409.240237
 21
909.363686
 31
0.0
  0
LINE
  5
126
100
AcDbEntity
  8
035-DWG
100
AcDbLine
 10
-373.983868
 20
909.363686
 30
0.0
 11
-391.240237
 21
909.363686
 31
0.0
  0
ARC
  5
127
100
AcDbEntity
  8
035-DWG
100
AcDbCircle
 10
-405.240237
 20
928.745635
 30
0.0
 40
4.0
100
AcDbArc
 50
90.0
 51
180.0
  0
LINE
  5
128
100
AcDbEntity
  8
035-DWG
100
AcDbLine
 10
-424.375173
 20
913.113305
 30
0.0
 11
-426.828912
 21
917.363305
 31
0.0
  0
LINE
  5
129
100
AcDbEntity
  8
035-DWG
100
AcDbLine
 10
-426.828912
 20
917.363305
 30
0.0
 11
-409.240237
 21
917.363305
 31
0.0
  0
LINE
  5
12A
100
AcDbEntity
  8
025-DWG
100
AcDbLine
 10
-424.375173
 20
913.113305
 30
0.0
 11
-409.240237
 21
913.113305
 31
0.0
  0
LINE
  5
12B
100
AcDbEntity
  8
035-DWG
100
AcDbLine
 10
-392.594485
 20
931.745635
 30
0.0
 11
-407.885988
 21
931.745635
 31
0.0
  0
LINE
  5
12C
100
AcDbEntity
  8
035-DWG
100
AcDbLine
 10
-395.240237
 20
932.745635
 30
0.0
 11
-405.240237
 21
932.745635
 31
0.0
  0
ARC
  5
12D
100
AcDbEntity
  8
035-DWG
100
AcDbCircle
 10
-395.240237
 20
928.745635
 30
0.0
 40
4.0
100
AcDbArc
 50
0.0
 51
90.0
  0
LINE
  5
12E
100
AcDbEntity
  8
035-DWG
100
AcDbLine
 10
-376.1053
 20
913.113305
 30
0.0
 11
-373.651561
 21
917.363305
 31
0.0
  0
LINE
  5
12F
100
AcDbEntity
  8
025-DWG
100
AcDbLine
 10
-376.1053
 20
913.113305
 30
0.0
 11
-391.240237
 21
913.113305
 31
0.0
  0
LINE
  5
130
100
AcDbEntity
  8
035-DWG
100
AcDbLine
 10
-373.651561
 20
917.363305
 30
0.0
 11
-391.240237
 21
917.363305
 31
0.0
  0
ARC
  5
131
100
AcDbEntity
  8
035-DWG
100
AcDbCircle
 10
-292.390237
 20
898.469091
 30
0.0
 40
1.8
100
AcDbArc
 50
360.0
 51
90.0
  0
LINE
  5
132
100
AcDbEntity
  8
035-DWG
100
AcDbLine
 10
-323.497785
 20
905.579686
 30
0.0
 11
-318.18719
 21
900.269091
 31
0.0
  0
LINE
  5
133
100
AcDbEntity
  8
035-DWG
100
AcDbLine
 10
-318.18719
 20
900.269091
 30
0.0
 11
-325.777132
 21
907.859034
 31
0.0
  0
LINE
  5
134
100
AcDbEntity
  8
035-DWG
100
AcDbLine
 10
-299.940237
 20
879.970653
 30
0.0
 11
-299.940237
 21
893.469091
 31
0.0
  0
ARC
  5
135
100
AcDbEntity
  8
035-DWG
100
AcDbCircle
 10
-299.940237
 20
877.470653
 30
0.0
 40
2.5
100
AcDbArc
 50
90.0
 51
270.0
  0
LINE
  5
136
100
AcDbEntity
  8
035-DWG
100
AcDbLine
 10
-290.590237
 20
893.469091
 30
0.0
 11
-290.590237
 21
898.469091
 31
0.0
  0
LINE
  5
137
100
AcDbEntity
  8
035-DWG
100
AcDbLine
 10
-298.748745
 20
557.829728
 30
0.421745
 11
-298.748745
 21
696.015882
 31
0.421745
  0
LINE
  5
138
100
AcDbEntity
  8
035-DWG
100
AcDbLine
 10
-285.964013
 20
541.516227
 30
0.421745
 11
-285.964013
 21
687.210203
 31
0.421745
  0
LINE
  5
139
100
AcDbEntity
  8
035-DWG
100
AcDbLine
 10
-278.443903
 20
543.942668
 30
0.421745
 11
-278.443903
 21
647.578069
 31
0.421745
  0
LINE
  5
13A
100
AcDbEntity
  8
035-DWG
100
AcDbLine
 10
-298.748745
 20
703.301368
 30
0.421745
 11
-298.748745
 21
763.027076
 31
0.421745
  0
LINE
  5
13B
100
AcDbEntity
  8
035-DWG
100
AcDbLine
 10
-285.964013
 20
694.495689
 30
0.421745
 11
-285.964013
 21
764.145596
 31
0.421745
  0
LINE
  5
13C
100
AcDbEntity
  8
035-DWG
100
AcDbLine
 10
-278.443903
 20
689.316099
 30
0.421745
 11
-278.443903
 21
764.80352
 31
0.421745
  0
LINE
  5
13D
100
AcDbEntity
  8
035-DWG
100
AcDbLine
 10
-278.443903
 20
647.578069
 30
0.421745
 11
-278.443903
 21
682.030613
 31
0.421745
  0
LWPOLYLINE
  5
13E
100
AcDbEntity
  8
025-DWG
100
AcDbPolyline
 90
        6
 70
     0
 43
0.0
 38
0.421745
 10
-290.814151
 20
773.382978
 10
-290.74839
 20
773.239929
 10
-290.612968
 20
773.151519
 10
-290.459611
 20
773.151519
 10
-290.346897
 20
773.239929
 10
-290.317878
 20
773.382978
  0
LINE
  5
13F
100
AcDbEntity
  8
025-DWG
100
AcDbLine
 10
-290.100996
 20
773.626348
 30
0.421745
 11
-291.093542
 21
773.626348
 31
0.421745
  0
LINE
  5
140
100
AcDbEntity
  8
035-DWG
100
AcDbLine
 10
-298.756514
 20
775.1
 30
0.421745
 11
-285.757961
 21
775.1
 31
0.421745
  0
LINE
  5
141
100
AcDbEntity
  8
025-DWG
100
AcDbLine
 10
-285.636133
 20
774.126177
 30
0.421745
 11
-298.804013
 21
774.126177
 31
0.421745
  0
LWPOLYLINE
  5
142
100
AcDbEntity
  8
035-DWG
100
AcDbPolyline
 90
        5
 70
     0
 43
0.0
 38
0.421745
 10
-275.05512
 20
765.1
 10
-275.655515
 20
765.047472
 10
-277.429311
 20
764.892285
 10
-280.295588
 20
764.641519
 10
-299.429555
 20
762.967513
  0
LWPOLYLINE
  5
143
100
AcDbEntity
  8
025-DWG
100
AcDbPolyline
 90
        2
 70
     0
 43
0.0
 38
0.421745
 10
-298.841766
 20
767.594243
 10
-298.862219
 20
773.629343
  0
LINE
  5
144
100
AcDbEntity
  8
025-DWG
100
AcDbLine
 10
-296.769428
 20
773.382978
 30
0.421745
 11
-296.736941
 21
763.203086
 31
0.421745
  0
LINE
  5
145
100
AcDbEntity
  8
025-DWG
100
AcDbLine
 10
-297.761974
 20
773.382978
 30
0.421745
 11
-297.72921
 21
763.116274
 31
0.421745
  0
LINE
  5
146
100
AcDbEntity
  8
025-DWG
100
AcDbLine
 10
-298.737976
 20
773.319989
 30
0.421745
 11
-298.705141
 21
763.030891
 31
0.421745
  0
LINE
  5
147
100
AcDbEntity
  8
025-DWG
100
AcDbLine
 10
-298.256288
 20
773.353309
 30
0.421745
 11
-298.223481
 21
763.073031
 31
0.421745
  0
LINE
  5
148
100
AcDbEntity
  8
025-DWG
100
AcDbLine
 10
-297.263742
 20
773.353309
 30
0.421745
 11
-297.231211
 21
763.159843
 31
0.421745
  0
LWPOLYLINE
  5
149
100
AcDbEntity
  8
035-DWG
100
AcDbPolyline
 90
        3
 70
     0
 43
0.0
 38
0.421745
 10
-299.429555
 20
762.967513
 10
-299.397192
 20
768.528566
 10
-299.364918
 20
774.115966
  0
LINE
  5
14A
100
AcDbEntity
  8
025-DWG
100
AcDbLine
 10
-290.814151
 20
773.382978
 30
0.421745
 11
-290.783326
 21
763.72396
 31
0.421745
  0
LINE
  5
14B
100
AcDbEntity
  8
025-DWG
100
AcDbLine
 10
-291.308465
 20
773.353309
 30
0.421745
 11
-291.277597
 21
763.680717
 31
0.421745
  0
LINE
  5
14C
100
AcDbEntity
  8
025-DWG
100
AcDbLine
 10
-291.806697
 20
773.382978
 30
0.421745
 11
-291.775596
 21
763.637148
 31
0.421745
  0
LINE
  5
14D
100
AcDbEntity
  8
025-DWG
100
AcDbLine
 10
-292.799243
 20
773.382978
 30
0.421745
 11
-292.767865
 21
763.550336
 31
0.421745
  0
LINE
  5
14E
100
AcDbEntity
  8
025-DWG
100
AcDbLine
 10
-293.791789
 20
773.382978
 30
0.421745
 11
-293.760134
 21
763.463523
 31
0.421745
  0
LINE
  5
14F
100
AcDbEntity
  8
025-DWG
100
AcDbLine
 10
-294.784336
 20
773.382978
 30
0.421745
 11
-294.752403
 21
763.376711
 31
0.421745
  0
LINE
  5
150
100
AcDbEntity
  8
025-DWG
100
AcDbLine
 10
-295.776882
 20
773.382978
 30
0.421745
 11
-295.744672
 21
763.289899
 31
0.421745
  0
LINE
  5
151
100
AcDbEntity
  8
025-DWG
100
AcDbLine
 10
-296.271195
 20
773.353309
 30
0.421745
 11
-296.238942
 21
763.246656
 31
0.421745
  0
LINE
  5
152
100
AcDbEntity
  8
025-DWG
100
AcDbLine
 10
-295.278649
 20
773.353309
 30
0.421745
 11
-295.246673
 21
763.333468
 31
0.421745
  0
LINE
  5
153
100
AcDbEntity
  8
025-DWG
100
AcDbLine
 10
-294.286103
 20
773.353309
 30
0.421745
 11
-294.254404
 21
763.42028
 31
0.421745
  0
LINE
  5
154
100
AcDbEntity
  8
025-DWG
100
AcDbLine
 10
-293.293557
 20
773.353309
 30
0.421745
 11
-293.262135
 21
763.507093
 31
0.421745
  0
LINE
  5
155
100
AcDbEntity
  8
025-DWG
100
AcDbLine
 10
-292.301011
 20
773.353309
 30
0.421745
 11
-292.269866
 21
763.593905
 31
0.421745
  0
LINE
  5
156
100
AcDbEntity
  8
025-DWG
100
AcDbLine
 10
-298.841766
 20
767.594243
 30
0.421745
 11
-298.827169
 21
763.020215
 31
0.421745
  0
LWPOLYLINE
  5
157
100
AcDbEntity
  8
025-DWG
100
AcDbPolyline
 90
      124
 70
     0
 43
0.0
 38
0.421745
 10
-298.841766
 20
767.594243
 10
-298.841982
 20
767.557018
 10
-298.842198
 20
767.519794
 10
-298.842414
 20
767.48257
 10
-298.84263
 20
767.445346
 10
-298.842846
 20
767.408122
 10
-298.843063
 20
767.370898
 10
-298.843279
 20
767.333674
 10
-298.843495
 20
767.296451
 10
-298.843711
 20
767.259227
 10
-298.843927
 20
767.222004
 10
-298.844144
 20
767.184781
 10
-298.84436
 20
767.147558
 10
-298.844576
 20
767.110335
 10
-298.844792
 20
767.073112
 10
-298.845008
 20
767.03589
 10
-298.845225
 20
766.998667
 10
-298.845441
 20
766.961445
 10
-298.845657
 20
766.924222
 10
-298.845874
 20
766.887
 10
-298.84609
 20
766.849778
 10
-298.846306
 20
766.812556
 10
-298.846522
 20
766.775335
 10
-298.846739
 20
766.738113
 10
-298.846955
 20
766.700892
 10
-298.847171
 20
766.66367
 10
-298.847388
 20
766.626449
 10
-298.847604
 20
766.589228
 10
-298.847821
 20
766.552007
 10
-298.848037
 20
766.514786
 10
-298.848253
 20
766.477566
 10
-298.84847
 20
766.440345
 10
-298.848686
 20
766.403125
 10
-298.848903
 20
766.365904
 10
-298.849119
 20
766.328684
 10
-298.849336
 20
766.291464
 10
-298.849552
 20
766.254244
 10
-298.849768
 20
766.217024
 10
-298.849985
 20
766.179805
 10
-298.850201
 20
766.142585
 10
-298.850418
 20
766.105366
 10
-298.850634
 20
766.068146
 10
-298.850851
 20
766.030927
 10
-298.851067
 20
765.993708
 10
-298.851284
 20
765.956489
 10
-298.851501
 20
765.919271
 10
-298.851717
 20
765.882052
 10
-298.851934
 20
765.844834
 10
-298.85215
 20
765.807615
 10
-298.852367
 20
765.770397
 10
-298.852583
 20
765.733179
 10
-298.8528
 20
765.695961
 10
-298.853017
 20
765.658743
 10
-298.853233
 20
765.621525
 10
-298.85345
 20
765.584308
 10
-298.853667
 20
765.54709
 10
-298.853883
 20
765.509873
 10
-298.8541
 20
765.472656
 10
-298.854317
 20
765.435439
 10
-298.854533
 20
765.398222
 10
-298.85475
 20
765.361005
 10
-298.854967
 20
765.323788
 10
-298.855183
 20
765.286572
 10
-298.8554
 20
765.249355
 10
-298.855617
 20
765.212139
 10
-298.855834
 20
765.174923
 10
-298.85605
 20
765.137707
 10
-298.856267
 20
765.100491
 10
-298.856484
 20
765.063275
 10
-298.856701
 20
765.026059
 10
-298.856918
 20
764.988844
 10
-298.857134
 20
764.951628
 10
-298.857351
 20
764.914413
 10
-298.857568
 20
764.877198
 10
-298.857785
 20
764.839983
 10
-298.858002
 20
764.802768
 10
-298.858219
 20
764.765553
 10
-298.858435
 20
764.728339
 10
-298.858652
 20
764.691124
 10
-298.858869
 20
764.65391
 10
-298.859086
 20
764.616696
 10
-298.859303
 20
764.579481
 10
-298.85952
 20
764.542268
 10
-298.859737
 20
764.505054
 10
-298.859954
 20
764.46784
 10
-298.860171
 20
764.430626
 10
-298.860388
 20
764.393413
 10
-298.860605
 20
764.3562
 10
-298.860822
 20
764.318986
 10
-298.861039
 20
764.281773
 10
-298.861256
 20
764.24456
 10
-298.861473
 20
764.207348
 10
-298.86169
 20
764.170135
 10
-298.861907
 20
764.132922
 10
-298.862124
 20
764.09571
 10
-298.862341
 20
764.058498
 10
-298.862558
 20
764.021285
 10
-298.862775
 20
763.984073
 10
-298.862992
 20
763.946862
 10
-298.863209
 20
763.90965
 10
-298.863426
 20
763.872438
 10
-298.863643
 20
763.835227
 10
-298.863861
 20
763.798015
 10
-298.864078
 20
763.760804
 10
-298.864295
 20
763.723593
 10
-298.864512
 20
763.686382
 10
-298.864729
 20
763.649171
 10
-298.864946
 20
763.61196
 10
-298.865163
 20
763.57475
 10
-298.865381
 20
763.537539
 10
-298.865598
 20
763.500329
 10
-298.865815
 20
763.463119
 10
-298.866032
 20
763.425908
 10
-298.86625
 20
763.388699
 10
-298.866467
 20
763.351489
 10
-298.866684
 20
763.314279
 10
-298.866901
 20
763.277069
 10
-298.867119
 20
763.23986
 10
-298.867336
 20
763.202651
 10
-298.867553
 20
763.165441
 10
-298.86777
 20
763.128232
 10
-298.867988
 20
763.091023
 10
-298.868205
 20
763.053815
 10
-298.868422
 20
763.016606
  0
LWPOLYLINE
  5
158
100
AcDbEntity
  8
025-DWG
100
AcDbPolyline
 90
        6
 70
     0
 43
0.0
 38
0.421745
 10
-297.761974
 20
773.382978
 10
-297.696213
 20
773.239929
 10
-297.560791
 20
773.151519
 10
-297.407434
 20
773.151519
 10
-297.29472
 20
773.239929
 10
-297.265701
 20
773.382978
  0
LINE
  5
159
100
AcDbEntity
  8
025-DWG
100
AcDbLine
 10
-297.048819
 20
773.626348
 30
0.421745
 11
-298.041365
 21
773.626348
 31
0.421745
  0
LWPOLYLINE
  5
15A
100
AcDbEntity
  8
025-DWG
100
AcDbPolyline
 90
        4
 70
     0
 43
0.0
 38
0.421745
 10
-297.048819
 20
773.626348
 10
-296.920563
 20
773.593743
 10
-296.818299
 20
773.504663
 10
-296.769428
 20
773.382978
  0
LWPOLYLINE
  5
15B
100
AcDbEntity
  8
025-DWG
100
AcDbPolyline
 90
        3
 70
     0
 43
0.0
 38
0.421745
 10
-297.265701
 20
773.382978
 10
-297.215124
 20
773.555067
 10
-297.048819
 20
773.626348
  0
LWPOLYLINE
  5
15C
100
AcDbEntity
  8
025-DWG
100
AcDbPolyline
 90
        6
 70
     0
 43
0.0
 38
0.421745
 10
-298.737976
 20
773.319989
 10
-298.649193
 20
773.202119
 10
-298.514331
 20
773.142604
 10
-298.376905
 20
773.160649
 10
-298.281256
 20
773.250429
 10
-298.258247
 20
773.382978
  0
LWPOLYLINE
  5
15D
100
AcDbEntity
  8
025-DWG
100
AcDbPolyline
 90
        3
 70
     0
 43
0.0
 38
0.421745
 10
-298.258247
 20
773.382978
 10
-298.20767
 20
773.555067
 10
-298.041365
 20
773.626348
  0
LINE
  5
15E
100
AcDbEntity
  8
025-DWG
100
AcDbLine
 10
-298.862219
 20
773.629343
 30
0.421745
 11
-298.737976
 21
773.319989
 31
0.421745
  0
LWPOLYLINE
  5
15F
100
AcDbEntity
  8
025-DWG
100
AcDbPolyline
 90
        4
 70
     0
 43
0.0
 38
0.421745
 10
-298.041365
 20
773.626348
 10
-297.913109
 20
773.593743
 10
-297.810845
 20
773.504663
 10
-297.761974
 20
773.382978
  0
LINE
  5
160
100
AcDbEntity
  8
025-DWG
100
AcDbLine
 10
-298.041365
 20
773.626348
 30
0.421745
 11
-298.80689
 21
773.626348
 31
0.421745
  0
LWPOLYLINE
  5
161
100
AcDbEntity
  8
025-DWG
100
AcDbPolyline
 90
        2
 70
     0
 43
0.0
 38
0.421745
 10
-298.862219
 20
773.629343
 10
-298.80689
 20
773.626348
  0
LWPOLYLINE
  5
162
100
AcDbEntity
  8
025-DWG
100
AcDbPolyline
 90
       14
 70
     0
 43
0.0
 38
0.421745
 10
-298.804013
 20
774.126177
 10
-298.804234
 20
774.087728
 10
-298.804455
 20
774.049279
 10
-298.804677
 20
774.01083
 10
-298.804898
 20
773.972381
 10
-298.805119
 20
773.933932
 10
-298.805341
 20
773.895484
 10
-298.805562
 20
773.857036
 10
-298.805783
 20
773.818587
 10
-298.806005
 20
773.780139
 10
-298.806226
 20
773.741691
 10
-298.806447
 20
773.703243
 10
-298.806669
 20
773.664796
 10
-298.80689
 20
773.626348
  0
ELLIPSE
  5
163
100
AcDbEntity
  8
025-DWG
100
AcDbEllipse
 10
-298.864927
 20
774.113088
 30
0.421745
 11
-0.4999917225104582
 21
0.0028770507667781
 31
0.0
210
0.0
220
0.0
230
-1.0
 40
0.027079
 41
-0.000000000001634
 42
1.692773513601811
  0
LWPOLYLINE
  5
164
100
AcDbEntity
  8
025-DWG
100
AcDbPolyline
 90
        6
 70
     0
 43
0.0
 38
0.421745
 10
-298.756514
 20
775.1
 10
-298.764288
 20
775.085822
 10
-298.786433
 20
774.8712
 10
-298.798051
 20
774.579784
 10
-298.802801
 20
774.322778
 10
-298.804013
 20
774.126177
  0
LWPOLYLINE
  5
165
100
AcDbEntity
  8
035-DWG
100
AcDbPolyline
 90
        7
 70
     0
 43
0.0
 38
0.421745
 10
-299.364918
 20
774.115966
 10
-299.349966
 20
774.38205
 10
-299.297203
 20
774.653555
 10
-299.23364
 20
774.806894
 10
-299.095867
 20
774.975989
 10
-298.934375
 20
775.068868
 10
-298.756514
 20
775.1
  0
LWPOLYLINE
  5
166
100
AcDbEntity
  8
025-DWG
100
AcDbPolyline
 90
        6
 70
     0
 43
0.0
 38
0.421745
 10
-295.776882
 20
773.382978
 10
-295.711121
 20
773.239929
 10
-295.575699
 20
773.151519
 10
-295.422342
 20
773.151519
 10
-295.309628
 20
773.239929
 10
-295.280609
 20
773.382978
  0
LINE
  5
167
100
AcDbEntity
  8
025-DWG
100
AcDbLine
 10
-295.063727
 20
773.626348
 30
0.421745
 11
-296.056273
 21
773.626348
 31
0.421745
  0
LWPOLYLINE
  5
168
100
AcDbEntity
  8
025-DWG
100
AcDbPolyline
 90
        6
 70
     0
 43
0.0
 38
0.421745
 10
-293.791789
 20
773.382978
 10
-293.726029
 20
773.239929
 10
-293.590607
 20
773.151519
 10
-293.43725
 20
773.151519
 10
-293.324535
 20
773.239929
 10
-293.295516
 20
773.382978
  0
LINE
  5
169
100
AcDbEntity
  8
025-DWG
100
AcDbLine
 10
-293.078634
 20
773.626348
 30
0.421745
 11
-294.07118
 21
773.626348
 31
0.421745
  0
LWPOLYLINE
  5
16A
100
AcDbEntity
  8
025-DWG
100
AcDbPolyline
 90
        3
 70
     0
 43
0.0
 38
0.421745
 10
-293.295516
 20
773.382978
 10
-293.244939
 20
773.555067
 10
-293.078634
 20
773.626348
  0
LWPOLYLINE
  5
16B
100
AcDbEntity
  8
025-DWG
100
AcDbPolyline
 90
        3
 70
     0
 43
0.0
 38
0.421745
 10
-294.07118
 20
773.626348
 10
-293.886567
 20
773.555067
 10
-293.791789
 20
773.382978
  0
LWPOLYLINE
  5
16C
100
AcDbEntity
  8
025-DWG
100
AcDbPolyline
 90
        6
 70
     0
 43
0.0
 38
0.421745
 10
-294.784336
 20
773.382978
 10
-294.718575
 20
773.239929
 10
-294.583153
 20
773.151519
 10
-294.429796
 20
773.151519
 10
-294.317081
 20
773.239929
 10
-294.288062
 20
773.382978
  0
LWPOLYLINE
  5
16D
100
AcDbEntity
  8
025-DWG
100
AcDbPolyline
 90
        3
 70
     0
 43
0.0
 38
0.421745
 10
-294.288062
 20
773.382978
 10
-294.237485
 20
773.555067
 10
-294.07118
 20
773.626348
  0
LWPOLYLINE
  5
16E
100
AcDbEntity
  8
025-DWG
100
AcDbPolyline
 90
        4
 70
     0
 43
0.0
 38
0.421745
 10
-295.063727
 20
773.626348
 10
-294.935471
 20
773.593743
 10
-294.833207
 20
773.504663
 10
-294.784336
 20
773.382978
  0
LWPOLYLINE
  5
16F
100
AcDbEntity
  8
025-DWG
100
AcDbPolyline
 90
        3
 70
     0
 43
0.0
 38
0.421745
 10
-295.280609
 20
773.382978
 10
-295.230031
 20
773.555067
 10
-295.063727
 20
773.626348
  0
LINE
  5
170
100
AcDbEntity
  8
025-DWG
100
AcDbLine
 10
-294.07118
 20
773.626348
 30
0.421745
 11
-295.063727
 21
773.626348
 31
0.421745
  0
LWPOLYLINE
  5
171
100
AcDbEntity
  8
025-DWG
100
AcDbPolyline
 90
        4
 70
     0
 43
0.0
 38
0.421745
 10
-296.056273
 20
773.626348
 10
-295.928017
 20
773.593743
 10
-295.825753
 20
773.504663
 10
-295.776882
 20
773.382978
  0
LWPOLYLINE
  5
172
100
AcDbEntity
  8
025-DWG
100
AcDbPolyline
 90
        3
 70
     0
 43
0.0
 38
0.421745
 10
-296.273155
 20
773.382978
 10
-296.222577
 20
773.555067
 10
-296.056273
 20
773.626348
  0
LWPOLYLINE
  5
173
100
AcDbEntity
  8
025-DWG
100
AcDbPolyline
 90
        6
 70
     0
 43
0.0
 38
0.421745
 10
-291.806697
 20
773.382978
 10
-291.740936
 20
773.239929
 10
-291.605514
 20
773.151519
 10
-291.452157
 20
773.151519
 10
-291.339443
 20
773.239929
 10
-291.310424
 20
773.382978
  0
LINE
  5
174
100
AcDbEntity
  8
025-DWG
100
AcDbLine
 10
-291.093542
 20
773.626348
 30
0.421745
 11
-292.086088
 21
773.626348
 31
0.421745
  0
LWPOLYLINE
  5
175
100
AcDbEntity
  8
025-DWG
100
AcDbPolyline
 90
        4
 70
     0
 43
0.0
 38
0.421745
 10
-291.093542
 20
773.626348
 10
-290.965286
 20
773.593743
 10
-290.863022
 20
773.504663
 10
-290.814151
 20
773.382978
  0
LWPOLYLINE
  5
176
100
AcDbEntity
  8
025-DWG
100
AcDbPolyline
 90
        3
 70
     0
 43
0.0
 38
0.421745
 10
-291.310424
 20
773.382978
 10
-291.259847
 20
773.555067
 10
-291.093542
 20
773.626348
  0
LWPOLYLINE
  5
177
100
AcDbEntity
  8
025-DWG
100
AcDbPolyline
 90
        4
 70
     0
 43
0.0
 38
0.421745
 10
-292.086088
 20
773.626348
 10
-291.957832
 20
773.593743
 10
-291.855568
 20
773.504663
 10
-291.806697
 20
773.382978
  0
LWPOLYLINE
  5
178
100
AcDbEntity
  8
025-DWG
100
AcDbPolyline
 90
        6
 70
     0
 43
0.0
 38
0.421745
 10
-292.799243
 20
773.382978
 10
-292.733482
 20
773.239929
 10
-292.59806
 20
773.151519
 10
-292.444704
 20
773.151519
 10
-292.331989
 20
773.239929
 10
-292.30297
 20
773.382978
  0
LWPOLYLINE
  5
179
100
AcDbEntity
  8
025-DWG
100
AcDbPolyline
 90
        3
 70
     0
 43
0.0
 38
0.421745
 10
-292.30297
 20
773.382978
 10
-292.252393
 20
773.555067
 10
-292.086088
 20
773.626348
  0
LWPOLYLINE
  5
17A
100
AcDbEntity
  8
025-DWG
100
AcDbPolyline
 90
        4
 70
     0
 43
0.0
 38
0.421745
 10
-293.078634
 20
773.626348
 10
-292.950379
 20
773.593743
 10
-292.848114
 20
773.504663
 10
-292.799243
 20
773.382978
  0
LINE
  5
17B
100
AcDbEntity
  8
025-DWG
100
AcDbLine
 10
-292.086088
 20
773.626348
 30
0.421745
 11
-293.078634
 21
773.626348
 31
0.421745
  0
LWPOLYLINE
  5
17C
100
AcDbEntity
  8
025-DWG
100
AcDbPolyline
 90
        6
 70
     0
 43
0.0
 38
0.421745
 10
-296.769428
 20
773.382978
 10
-296.703667
 20
773.239929
 10
-296.568245
 20
773.151519
 10
-296.414888
 20
773.151519
 10
-296.302174
 20
773.239929
 10
-296.273155
 20
773.382978
  0
LINE
  5
17D
100
AcDbEntity
  8
025-DWG
100
AcDbLine
 10
-296.056273
 20
773.626348
 30
0.421745
 11
-297.048819
 21
773.626348
 31
0.421745
  0
LINE
  5
17E
100
AcDbEntity
  8
035-DWG
100
AcDbLine
 10
-275.291479
 20
774.126177
 30
0.421745
 11
-275.05512
 21
765.1
 31
0.421745
  0
LINE
  5
17F
100
AcDbEntity
  8
025-DWG
100
AcDbLine
 10
-289.821605
 20
773.382978
 30
0.421745
 11
-289.791057
 21
763.810773
 31
0.421745
  0
LINE
  5
180
100
AcDbEntity
  8
025-DWG
100
AcDbLine
 10
-289.323372
 20
773.353309
 30
0.421745
 11
-289.293059
 21
763.854342
 31
0.421745
  0
LINE
  5
181
100
AcDbEntity
  8
025-DWG
100
AcDbLine
 10
-290.315918
 20
773.353309
 30
0.421745
 11
-290.285328
 21
763.76753
 31
0.421745
  0
LINE
  5
182
100
AcDbEntity
  8
025-DWG
100
AcDbLine
 10
-284.2918
 20
774.126177
 30
0.421745
 11
-284.12359
 21
764.306612
 31
0.421745
  0
LINE
  5
183
100
AcDbEntity
  8
025-DWG
100
AcDbLine
 10
-288.829059
 20
773.382978
 30
0.421745
 11
-288.798788
 21
763.897585
 31
0.421745
  0
LINE
  5
184
100
AcDbEntity
  8
025-DWG
100
AcDbLine
 10
-287.836512
 20
773.382978
 30
0.421745
 11
-287.806519
 21
763.984397
 31
0.421745
  0
LINE
  5
185
100
AcDbEntity
  8
025-DWG
100
AcDbLine
 10
-286.843966
 20
773.382978
 30
0.421745
 11
-286.81425
 21
764.071209
 31
0.421745
  0
LINE
  5
186
100
AcDbEntity
  8
025-DWG
100
AcDbLine
 10
-286.348059
 20
773.319989
 30
0.421745
 11
-286.318682
 21
764.114566
 31
0.421745
  0
LINE
  5
187
100
AcDbEntity
  8
025-DWG
100
AcDbLine
 10
-286.273364
 20
764.118531
 30
0.421745
 11
-286.303706
 21
773.626348
 31
0.421745
  0
LINE
  5
188
100
AcDbEntity
  8
025-DWG
100
AcDbLine
 10
-285.636133
 20
774.126177
 30
0.421745
 11
-285.604383
 21
764.177059
 31
0.421745
  0
LINE
  5
189
100
AcDbEntity
  8
025-DWG
100
AcDbLine
 10
-287.33828
 20
773.353309
 30
0.421745
 11
-287.30852
 21
764.027966
 31
0.421745
  0
LINE
  5
18A
100
AcDbEntity
  8
025-DWG
100
AcDbLine
 10
-288.330826
 20
773.353309
 30
0.421745
 11
-288.300789
 21
763.941154
 31
0.421745
  0
LINE
  5
18B
100
AcDbEntity
  8
025-DWG
100
AcDbLine
 10
-284.2918
 20
774.126177
 30
0.421745
 11
-275.291479
 21
774.126177
 31
0.421745
  0
LINE
  5
18C
100
AcDbEntity
  8
035-DWG
100
AcDbLine
 10
-276.291137
 20
775.1
 30
0.421745
 11
-284.945749
 21
775.1
 31
0.421745
  0
ARC
  5
18D
100
AcDbEntity
  8
035-DWG
100
AcDbCircle
 10
-276.291137
 20
774.1
 30
0.421745
 40
1.0
100
AcDbArc
 50
1.5
 51
90.0
  0
LINE
  5
18E
100
AcDbEntity
  8
035-DWG
100
AcDbLine
 10
-289.91698
 20
775.1
 30
0.421745
 11
-289.91698
 21
775.6
 31
0.421745
  0
LINE
  5
18F
100
AcDbEntity
  8
035-DWG
100
AcDbLine
 10
-284.945749
 20
775.1
 30
0.421745
 11
-285.757961
 21
775.1
 31
0.421745
  0
LWPOLYLINE
  5
190
100
AcDbEntity
  8
025-DWG
100
AcDbPolyline
 90
        7
 70
     0
 43
0.0
 38
0.421745
 10
-289.821605
 20
773.382978
 10
-289.772734
 20
773.261293
 10
-289.670469
 20
773.172214
 10
-289.542214
 20
773.139608
 10
-289.422333
 20
773.172214
 10
-289.342948
 20
773.261293
 10
-289.325332
 20
773.382978
  0
LWPOLYLINE
  5
191
100
AcDbEntity
  8
025-DWG
100
AcDbPolyline
 90
        4
 70
     0
 43
0.0
 38
0.421745
 10
-290.100996
 20
773.626348
 10
-289.97274
 20
773.593743
 10
-289.870476
 20
773.504663
 10
-289.821605
 20
773.382978
  0
LWPOLYLINE
  5
192
100
AcDbEntity
  8
025-DWG
100
AcDbPolyline
 90
        3
 70
     0
 43
0.0
 38
0.421745
 10
-290.317878
 20
773.382978
 10
-290.267301
 20
773.555067
 10
-290.100996
 20
773.626348
  0
LWPOLYLINE
  5
193
100
AcDbEntity
  8
025-DWG
100
AcDbPolyline
 90
        6
 70
     0
 43
0.0
 38
0.421745
 10
-287.836512
 20
773.382978
 10
-287.770752
 20
773.239929
 10
-287.63533
 20
773.151519
 10
-287.481973
 20
773.151519
 10
-287.369258
 20
773.239929
 10
-287.340239
 20
773.382978
  0
LINE
  5
194
100
AcDbEntity
  8
025-DWG
100
AcDbLine
 10
-287.123357
 20
773.626348
 30
0.421745
 11
-288.115903
 21
773.626348
 31
0.421745
  0
LWPOLYLINE
  5
195
100
AcDbEntity
  8
025-DWG
100
AcDbPolyline
 90
        4
 70
     0
 43
0.0
 38
0.421745
 10
-287.123357
 20
773.626348
 10
-286.995102
 20
773.593743
 10
-286.892838
 20
773.504663
 10
-286.843966
 20
773.382978
  0
LWPOLYLINE
  5
196
100
AcDbEntity
  8
025-DWG
100
AcDbPolyline
 90
        6
 70
     0
 43
0.0
 38
0.421745
 10
-286.843966
 20
773.382978
 10
-286.786912
 20
773.250429
 10
-286.668204
 20
773.160649
 10
-286.526143
 20
773.142604
 10
-286.406567
 20
773.202119
 10
-286.348059
 20
773.319989
  0
LINE
  5
197
100
AcDbEntity
  8
025-DWG
100
AcDbLine
 10
-286.348059
 20
773.319989
 30
0.421745
 11
-286.303706
 21
773.626348
 31
0.421745
  0
LWPOLYLINE
  5
198
100
AcDbEntity
  8
025-DWG
100
AcDbPolyline
 90
        4
 70
     0
 43
0.0
 38
0.421745
 10
-287.340239
 20
773.382978
 10
-287.322623
 20
773.504663
 10
-287.243238
 20
773.593743
 10
-287.123357
 20
773.626348
  0
LINE
  5
199
100
AcDbEntity
  8
025-DWG
100
AcDbLine
 10
-286.303706
 20
773.626348
 30
0.421745
 11
-287.123357
 21
773.626348
 31
0.421745
  0
LWPOLYLINE
  5
19A
100
AcDbEntity
  8
025-DWG
100
AcDbPolyline
 90
        4
 70
     0
 43
0.0
 38
0.421745
 10
-288.115903
 20
773.626348
 10
-287.987648
 20
773.593743
 10
-287.885384
 20
773.504663
 10
-287.836512
 20
773.382978
  0
LWPOLYLINE
  5
19B
100
AcDbEntity
  8
025-DWG
100
AcDbPolyline
 90
        3
 70
     0
 43
0.0
 38
0.421745
 10
-289.10845
 20
773.626348
 10
-288.923836
 20
773.555067
 10
-288.829059
 20
773.382978
  0
LWPOLYLINE
  5
19C
100
AcDbEntity
  8
025-DWG
100
AcDbPolyline
 90
        6
 70
     0
 43
0.0
 38
0.421745
 10
-288.829059
 20
773.382978
 10
-288.763298
 20
773.239929
 10
-288.627876
 20
773.151519
 10
-288.474519
 20
773.151519
 10
-288.361805
 20
773.239929
 10
-288.332786
 20
773.382978
  0
LWPOLYLINE
  5
19D
100
AcDbEntity
  8
025-DWG
100
AcDbPolyline
 90
        3
 70
     0
 43
0.0
 38
0.421745
 10
-288.332786
 20
773.382978
 10
-288.282208
 20
773.555067
 10
-288.115903
 20
773.626348
  0
LINE
  5
19E
100
AcDbEntity
  8
025-DWG
100
AcDbLine
 10
-288.115903
 20
773.626348
 30
0.421745
 11
-289.10845
 21
773.626348
 31
0.421745
  0
LINE
  5
19F
100
AcDbEntity
  8
025-DWG
100
AcDbLine
 10
-285.636133
 20
774.126177
 30
0.421745
 11
-284.2918
 21
774.126177
 31
0.421745
  0
LINE
  5
1A0
100
AcDbEntity
  8
025-DWG
100
AcDbLine
 10
-289.10845
 20
773.626348
 30
0.421745
 11
-290.100996
 21
773.626348
 31
0.421745
  0
LWPOLYLINE
  5
1A1
100
AcDbEntity
  8
025-DWG
100
AcDbPolyline
 90
        3
 70
     0
 43
0.0
 38
0.421745
 10
-289.325332
 20
773.382978
 10
-289.274754
 20
773.555067
 10
-289.10845
 20
773.626348
  0
ELLIPSE
  5
1A2
100
AcDbEntity
  8
025-DWG
100
AcDbEllipse
 10
-284.945749
 20
774.1
 30
0.421745
 11
-0.0000000000002905
 21
1.0
 31
0.0
210
0.0
220
0.0
230
-1.0
 40
0.654173
 41
0.0000000000004439
 42
1.544616388015124
  0
ELLIPSE
  5
1A3
100
AcDbEntity
  8
025-DWG
100
AcDbEllipse
 10
-285.757961
 20
774.1
 30
0.421745
 11
0.0000000000001439
 21
1.0
 31
0.0
210
0.0
220
0.0
230
-1.0
 40
0.121869
 41
-0.0000000000011811
 42
1.544616388014916
  0
LINE
  5
1A4
100
AcDbEntity
  8
035-DWG
100
AcDbLine
 10
-279.91698
 20
775.1
 30
0.421745
 11
-279.91698
 21
775.6
 31
0.421745
  0
LINE
  5
1A5
100
AcDbEntity
  8
035-DWG
100
AcDbLine
 10
-279.91698
 20
775.6
 30
0.421745
 11
-289.91698
 21
775.6
 31
0.421745
  0
ENDSEC
  0
SECTION
  2
OBJECTS
  0
DICTIONARY
  5
1A
100
AcDbDictionary
  3
ACAD_GROUP
350
18
  3
ACAD_MLINESTYLE
350
19
  0
DICTIONARY
  5
18
102
{ACAD_REACTORS
330
1A
102
}
100
AcDbDictionary
  0
DICTIONARY
  5
19
102
{ACAD_REACTORS
330
1A
102
}
100
AcDbDictionary
  3
STANDARD
350
1D
  0
MLINESTYLE
  5
1D
102
{ACAD_REACTORS
330
19
102
}
100
AcDbMlineStyle
  2
STANDARD
 70
     0
  3

 62
     0
 51
90.0
 52
90.0
 71
     2
 49
0.5
 62
   256
  6
BYLAYER
 49
-0.5
 62
   256
  6
BYLAYER
  0
ENDSEC
  0
EOF
